0
SECTION
2
HEADER
999
*** POWERPCB  HEADER ***
9
$EXTMIN
10
-11.3376366667
20
-21.905
9
$EXTMAX
10
460.7011366667
20
451.3343746667
9
$FILLMODE
70
0
9
$GRIDMODE
70
1
9
$GRIDUNIT
10
1
20
1
9
$INSBASE
10
-457.2
20
-452.2
9
$LIMCHECK
70
0
9
$PLINEWID
40
0.1
9
$SNAPMODE
70
1
9
$SNAPUNIT
10
1
20
1
9
$TEXTSIZE
40
2.54
9
$TEXTSTYLE
7
W0$254
9
$USERI1
70
101
9
$USERI2
70
0
9
$USERI5
70
150
9
$VIEWCTR
10
61.862432
20
34.8563506667
0
ENDSEC
0
SECTION
2
TABLES
999
*** POWERPCB  LTYPE ***
0
TABLE
2
LTYPE
70
4
0
LTYPE
2
CONTINUOUS
70
64
3
---
72
65
73
0
40
0
0
LTYPE
2
TRMIDX_2048
70
64
3
---
72
65
73
2
40
2
49
1
49
1
0
LTYPE
2
TRMIDX_4096
70
64
3
---
72
65
73
2
40
2
49
1
49
1
0
LTYPE
2
TRMIDX_0
70
64
3
---
72
65
73
2
40
2
49
1
49
1
0
LTYPE
2
KEEPOUT_00011110$0
70
64
3
---
72
65
73
2
40
2
49
1
49
1
0
ENDTAB
999
*** POWERPCB  LAYER ***
0
TABLE
2
LAYER
70
50
0
LAYER
2
DBLAYERS
70
1
62
-254
6
CONTINUOUS
0
LAYER
2
2D_LINE_00
70
0
62
96
6
CONTINUOUS
0
LAYER
2
DIMENSION7_24
70
0
62
254
6
CONTINUOUS
0
LAYER
2
DIMENSION1_24
70
0
62
254
6
CONTINUOUS
0
LAYER
2
DIMENSION3_24
70
0
62
254
6
CONTINUOUS
0
LAYER
2
DIMENSION2_24
70
0
62
254
6
CONTINUOUS
0
LAYER
2
DIMENSION4_24
70
0
62
254
6
CONTINUOUS
0
LAYER
2
DIMENSION5_24
70
0
62
254
6
CONTINUOUS
0
LAYER
2
DIMENSION6_24
70
0
62
254
6
CONTINUOUS
0
LAYER
2
TEXT_24
70
0
62
4
6
CONTINUOUS
0
LAYER
2
TEXT_21
70
0
62
176
6
CONTINUOUS
0
LAYER
2
TEXT_01
70
0
62
96
6
CONTINUOUS
0
LAYER
2
TEXT_26
70
0
62
254
6
CONTINUOUS
0
LAYER
2
LABEL_INFO
70
1
62
-254
6
CONTINUOUS
0
LAYER
2
LABEL_ATTRIBUTE
70
1
62
-254
6
CONTINUOUS
0
LAYER
2
PART_NAME_26
70
0
62
254
6
CONTINUOUS
0
LAYER
2
ATTRIBUTE_26
70
1
62
-254
6
CONTINUOUS
0
LAYER
2
PART_TYPE_TOP
70
1
62
-250
6
CONTINUOUS
0
LAYER
2
PART_INFO
70
1
62
-254
6
CONTINUOUS
0
LAYER
2
PART_PTS
70
1
62
-254
6
CONTINUOUS
0
LAYER
2
PART_NAME_01
70
0
62
254
6
CONTINUOUS
0
LAYER
2
PART_TYPE_01
70
1
62
-250
6
CONTINUOUS
0
LAYER
2
PART_NAME_TOP
70
1
62
-250
6
CONTINUOUS
0
LAYER
2
SYM_NAME
70
1
62
-254
6
CONTINUOUS
0
LAYER
2
SYM_ATTRIBUTE_26
70
1
62
-254
6
CONTINUOUS
0
LAYER
2
SYM_PART_NAME_26
70
1
62
-254
6
CONTINUOUS
0
LAYER
2
SYM_TERMINAL
70
1
62
-254
6
CONTINUOUS
0
LAYER
2
PKG_INFO
70
1
62
-254
6
CONTINUOUS
0
LAYER
2
SYM_PART_TYPE_01
70
1
62
-254
6
CONTINUOUS
0
LAYER
2
SYM_PART_NAME_01
70
1
62
-254
6
CONTINUOUS
0
LAYER
2
PART_TOP_2DLINE_01
70
0
62
254
6
CONTINUOUS
0
LAYER
2
DRIL_NPLTE_THRU_01
70
0
62
1
6
CONTINUOUS
0
LAYER
2
DRIL_NPLTE_THRU_02
70
0
62
1
6
CONTINUOUS
0
LAYER
2
PADS_INNER
70
0
62
23
6
CONTINUOUS
0
LAYER
2
PADS_BOT
70
0
62
16
6
CONTINUOUS
0
LAYER
2
PADS_TOP
70
0
62
23
6
CONTINUOUS
0
LAYER
2
DRIL_PLTE_THRU_01
70
0
62
1
6
CONTINUOUS
0
LAYER
2
DRIL_PLTE_THRU_02
70
0
62
1
6
CONTINUOUS
0
LAYER
2
PART_TOP_COPPER_01
70
0
62
254
6
CONTINUOUS
0
LAYER
2
PART_TOP_CUTOUT_03
70
1
62
-250
6
CONTINUOUS
0
LAYER
2
PART_TOP_CUTOUT_04
70
1
62
-250
6
CONTINUOUS
0
LAYER
2
KEEPOUT_00
70
0
62
130
6
CONTINUOUS
0
LAYER
2
PADS_XR_21
70
0
62
176
6
CONTINUOUS
0
LAYER
2
PADS_XR_28
70
0
62
130
6
CONTINUOUS
0
LAYER
2
PART_TOP_COPPER_26
70
0
62
254
6
CONTINUOUS
0
LAYER
2
PART_TOP_TEXT_26
70
0
62
254
6
CONTINUOUS
0
LAYER
2
PART_TOP_COPPER_21
70
1
62
-250
6
CONTINUOUS
0
LAYER
2
PART_TOP_COPPER_28
70
1
62
-250
6
CONTINUOUS
0
LAYER
2
PCB_PARAMS
70
1
62
-254
6
CONTINUOUS
0
LAYER
2
DRIL_SYMBOL
70
0
62
254
6
CONTINUOUS
0
ENDTAB
999
*** POWERPCB  TEXT STYLE ***
0
TABLE
2
STYLE
70
9
0
STYLE
2
W0$254
70
64
40
0
41
0.75
42
0
50
0
71
0
3
simplex
0
STYLE
2
W0$2
70
64
40
0
41
0.75
42
0
50
0
71
0
3
simplex
0
STYLE
2
W0$125
70
64
40
0
41
0.75
42
0
50
0
71
0
3
simplex
0
STYLE
2
W0$127
70
64
40
0
41
0.75
42
0
50
0
71
0
3
simplex
0
STYLE
2
W0$01
70
64
40
0
41
0.75
42
0
50
0
71
0
3
simplex
0
STYLE
2
W0$1524
70
64
40
0
41
0.75
42
0
50
0
71
0
3
simplex
0
STYLE
2
W0$127R0
70
64
40
0
41
0.75
42
0
50
0
71
0
3
simplex
0
STYLE
2
W0$01R0
70
64
40
0
41
0.75
42
0
50
0
71
0
3
simplex
0
STYLE
2
W0$2032R0
70
64
40
0
41
0.75
42
0
50
0
71
0
3
simplex
0
ENDTAB
0
ENDSEC
0
SECTION
2
BLOCKS
999
*** POWERPCB  DBLAYER ***
0
BLOCK
2
DBLAYERS
8
0
10
0
20
0
3
DBLAYERS
70
64
0
TEXT
8
DBLAYERS
10
0
20
-3.048
40
1.778
1
__It__Is__Job__Name__:=G101EVN01.0_V1.0-181120.pcb
999
 *  1.Number             2.Type                  3.RouteColor
999
 *  4.ViaColor           5.PadColor              6.CopperColor
999
 *  7.2DLineColor        8.TextColor             9.ErrorColor
999
 * 10.TopComponentColor 11.BottomComponentColor 12.RoutingDirection
999
 * 13.LayerThickness    14.CopperThickness      15.Dielectric
999
 * 16.IsRouteable       17.IsVisible            18.IsSelectable
999
 * 19.IsPrepreg         20.AssSilkScreen        21.AssPasteMask
999
 * 22.AssSolderMask     23.AssAssembly
0
TEXT
8
DBLAYERS
10
0
20
-6.096
40
1.778
1
Top:=1 1 2 2 20 2 2 2 15 8 0 0 381000 51435 4.3000001907 1 1 1 0 26 23 21 27 0 0 1 8 0 9 27 
0
TEXT
8
DBLAYERS
10
0
20
-9.144
40
1.778
1
Solder Mask Top:=21 5 0 1 1 1 1 1 0 0 0 2 0 0 0 0 1 1 0 -1 -1 -1 -1 0 0 0 0 0 1 1 
0
TEXT
8
DBLAYERS
10
0
20
-12.192
40
1.778
1
Drill Drawing:=24 2 0 0 0 11 11 11 0 11 11 2 0 0 0 0 1 1 0 -1 -1 -1 -1 0 0 0 0 0 11 11 
0
TEXT
8
DBLAYERS
10
0
20
-15.24
40
1.778
1
Silkscreen Top:=26 3 0 0 0 8 8 8 0 8 0 2 0 0 0 0 1 1 0 -1 -1 -1 -1 0 0 0 8 0 8 8 
0
ENDBLK
999
*** POWERPCB  BOARD ***
999
*** POWERPCB  2DLINE ***
0
BLOCK
2
DRAWING_935
8
0
10
0
20
0
3
DRAWING_935
70
64
0
POLYLINE
8
2D_LINE_00
66
1
40
0.125
41
0.125
70
1
0
VERTEX
8
2D_LINE_00
10
0
20
0
0
VERTEX
8
2D_LINE_00
10
65
20
0
0
VERTEX
8
2D_LINE_00
10
65
20
-43
0
VERTEX
8
2D_LINE_00
10
0
20
-43
0
SEQEND
0
INSERT
2
SMOOTH_0$125
8
2D_LINE_00
10
0
20
0
0
INSERT
2
SMOOTH_0$125
8
2D_LINE_00
10
65
20
0
0
INSERT
2
SMOOTH_0$125
8
2D_LINE_00
10
65
20
-43
0
INSERT
2
SMOOTH_0$125
8
2D_LINE_00
10
0
20
-43
0
ENDBLK
0
BLOCK
2
DRAWING_937
8
0
10
0
20
0
3
DRAWING_937
70
64
0
POLYLINE
8
2D_LINE_00
66
1
40
0.11
41
0.11
70
1
0
VERTEX
8
2D_LINE_00
10
0
20
0
0
VERTEX
8
2D_LINE_00
10
45
20
0
0
VERTEX
8
2D_LINE_00
10
45
20
-9
0
VERTEX
8
2D_LINE_00
10
0
20
-9
0
SEQEND
0
INSERT
2
SMOOTH_0$11
8
2D_LINE_00
10
0
20
0
0
INSERT
2
SMOOTH_0$11
8
2D_LINE_00
10
45
20
0
0
INSERT
2
SMOOTH_0$11
8
2D_LINE_00
10
45
20
-9
0
INSERT
2
SMOOTH_0$11
8
2D_LINE_00
10
0
20
-9
0
ENDBLK
0
BLOCK
2
DRAWING_938
8
0
10
0
20
0
3
DRAWING_938
70
64
0
POLYLINE
8
2D_LINE_00
66
1
40
0.11
41
0.11
0
VERTEX
8
2D_LINE_00
10
0
20
0
0
VERTEX
8
2D_LINE_00
10
0
20
-9
0
SEQEND
0
INSERT
2
SMOOTH_0$11
8
2D_LINE_00
10
0
20
0
0
INSERT
2
SMOOTH_0$11
8
2D_LINE_00
10
0
20
-9
0
ENDBLK
0
BLOCK
2
DRAWING_939
8
0
10
0
20
0
3
DRAWING_939
70
64
0
POLYLINE
8
2D_LINE_00
66
1
40
0.11
41
0.11
0
VERTEX
8
2D_LINE_00
10
0
20
0
0
VERTEX
8
2D_LINE_00
10
18
20
0
0
SEQEND
0
INSERT
2
SMOOTH_0$11
8
2D_LINE_00
10
0
20
0
0
INSERT
2
SMOOTH_0$11
8
2D_LINE_00
10
18
20
0
0
ENDBLK
0
BLOCK
2
DRAWING_940
8
0
10
0
20
0
3
DRAWING_940
70
64
0
POLYLINE
8
2D_LINE_00
66
1
40
0.11
41
0.11
0
VERTEX
8
2D_LINE_00
10
-1
20
0
0
VERTEX
8
2D_LINE_00
10
17
20
0
0
SEQEND
0
INSERT
2
SMOOTH_0$11
8
2D_LINE_00
10
-1
20
0
0
INSERT
2
SMOOTH_0$11
8
2D_LINE_00
10
17
20
0
0
ENDBLK
0
BLOCK
2
DRAWING_941
8
0
10
0
20
0
3
DRAWING_941
70
64
0
POLYLINE
8
2D_LINE_00
66
1
40
0.11
41
0.11
0
VERTEX
8
2D_LINE_00
10
0
20
0
0
VERTEX
8
2D_LINE_00
10
0
20
-3
0
SEQEND
0
INSERT
2
SMOOTH_0$11
8
2D_LINE_00
10
0
20
0
0
INSERT
2
SMOOTH_0$11
8
2D_LINE_00
10
0
20
-3
0
ENDBLK
0
BLOCK
2
DRAWING_942
8
0
10
0
20
0
3
DRAWING_942
70
64
0
POLYLINE
8
2D_LINE_00
66
1
40
0.11
41
0.11
0
VERTEX
8
2D_LINE_00
10
0
20
0
0
VERTEX
8
2D_LINE_00
10
-27
20
0
0
SEQEND
0
INSERT
2
SMOOTH_0$11
8
2D_LINE_00
10
0
20
0
0
INSERT
2
SMOOTH_0$11
8
2D_LINE_00
10
-27
20
0
0
ENDBLK
0
BLOCK
2
D_1dfeghi_943
8
0
10
0
20
0
3
D_1dfeghi_943
70
64
0
POLYLINE
8
DIMENSION7_24
6
TRMIDX_2048
66
1
40
0.0254
41
0.0254
0
VERTEX
8
DIMENSION7_24
10
0
20
0
0
VERTEX
8
DIMENSION7_24
10
0.0006666667
20
0
0
SEQEND
0
POLYLINE
8
DIMENSION7_24
6
TRMIDX_2048
66
1
40
0.0254
41
0.0254
0
VERTEX
8
DIMENSION7_24
10
65
20
0
0
VERTEX
8
DIMENSION7_24
10
65.0006666667
20
0
0
SEQEND
0
POLYLINE
8
DIMENSION1_24
6
TRMIDX_2048
66
1
40
0.254
41
0.254
0
VERTEX
8
DIMENSION1_24
10
0
20
6
0
VERTEX
8
DIMENSION1_24
10
27.783682
20
6
0
SEQEND
0
POLYLINE
8
DIMENSION3_24
6
TRMIDX_2048
66
1
40
0.254
41
0.254
70
1
0
VERTEX
8
DIMENSION3_24
10
0
20
6
0
VERTEX
8
DIMENSION3_24
10
2.54
20
6.635
0
VERTEX
8
DIMENSION3_24
10
2.54
20
5.365
0
SEQEND
0
POLYLINE
8
DIMENSION2_24
6
TRMIDX_2048
66
1
40
0.254
41
0.254
0
VERTEX
8
DIMENSION2_24
10
65
20
6
0
VERTEX
8
DIMENSION2_24
10
37.2163186667
20
6
0
SEQEND
0
POLYLINE
8
DIMENSION4_24
6
TRMIDX_2048
66
1
40
0.254
41
0.254
70
1
0
VERTEX
8
DIMENSION4_24
10
65
20
6
0
VERTEX
8
DIMENSION4_24
10
62.46
20
5.365
0
VERTEX
8
DIMENSION4_24
10
62.46
20
6.635
0
SEQEND
0
POLYLINE
8
DIMENSION5_24
6
TRMIDX_2048
66
1
40
0.254
41
0.254
0
VERTEX
8
DIMENSION5_24
10
0
20
1.27
0
VERTEX
8
DIMENSION5_24
10
0
20
7.27
0
SEQEND
0
POLYLINE
8
DIMENSION6_24
6
TRMIDX_2048
66
1
40
0.254
41
0.254
0
VERTEX
8
DIMENSION6_24
10
65
20
1.27
0
VERTEX
8
DIMENSION6_24
10
65
20
7.27
0
SEQEND
0
TEXT
8
TEXT_24
10
28.545682
20
5.0475
40
1.778
1
65.0mm
41
0.75
7
W0$254
0
ENDBLK
0
BLOCK
2
D_2daefgh_944
8
0
10
0
20
0
3
D_2daefgh_944
70
64
0
POLYLINE
8
DIMENSION7_24
6
TRMIDX_4096
66
1
40
0.0254
41
0.0254
0
VERTEX
8
DIMENSION7_24
10
0
20
0
0
VERTEX
8
DIMENSION7_24
10
0.0006666667
20
0
0
SEQEND
0
POLYLINE
8
DIMENSION7_24
6
TRMIDX_4096
66
1
40
0.0254
41
0.0254
0
VERTEX
8
DIMENSION7_24
10
0
20
43
0
VERTEX
8
DIMENSION7_24
10
0.0006666667
20
43
0
SEQEND
0
POLYLINE
8
DIMENSION1_24
6
TRMIDX_4096
66
1
40
0.254
41
0.254
0
VERTEX
8
DIMENSION1_24
10
7
20
0
0
VERTEX
8
DIMENSION1_24
10
7
20
43
0
SEQEND
0
POLYLINE
8
DIMENSION3_24
6
TRMIDX_4096
66
1
40
0.254
41
0.254
70
1
0
VERTEX
8
DIMENSION3_24
10
7
20
0
0
VERTEX
8
DIMENSION3_24
10
6.365
20
2.54
0
VERTEX
8
DIMENSION3_24
10
7.635
20
2.54
0
SEQEND
0
POLYLINE
8
DIMENSION4_24
6
TRMIDX_4096
66
1
40
0.254
41
0.254
70
1
0
VERTEX
8
DIMENSION4_24
10
7
20
43
0
VERTEX
8
DIMENSION4_24
10
7.635
20
40.46
0
VERTEX
8
DIMENSION4_24
10
6.365
20
40.46
0
SEQEND
0
POLYLINE
8
DIMENSION5_24
6
TRMIDX_4096
66
1
40
0.254
41
0.254
0
VERTEX
8
DIMENSION5_24
10
1.27
20
0
0
VERTEX
8
DIMENSION5_24
10
8.27
20
0
0
SEQEND
0
POLYLINE
8
DIMENSION6_24
6
TRMIDX_4096
66
1
40
0.254
41
0.254
0
VERTEX
8
DIMENSION6_24
10
1.27
20
43
0
VERTEX
8
DIMENSION6_24
10
8.27
20
43
0
SEQEND
0
TEXT
8
TEXT_24
10
9.5
20
18.5
40
1.778
1
43.0mm
50
90
41
0.75
7
W0$254
0
ENDBLK
0
BLOCK
2
DRAWING_945
8
0
10
0
20
0
3
DRAWING_945
70
64
0
POLYLINE
8
2D_LINE_00
66
1
40
0.125
41
0.125
70
1
0
VERTEX
8
2D_LINE_00
10
0
20
0
0
VERTEX
8
2D_LINE_00
10
65
20
0
0
VERTEX
8
2D_LINE_00
10
65
20
-43
0
VERTEX
8
2D_LINE_00
10
0
20
-43
0
SEQEND
0
INSERT
2
SMOOTH_0$125
8
2D_LINE_00
10
0
20
0
0
INSERT
2
SMOOTH_0$125
8
2D_LINE_00
10
65
20
0
0
INSERT
2
SMOOTH_0$125
8
2D_LINE_00
10
65
20
-43
0
INSERT
2
SMOOTH_0$125
8
2D_LINE_00
10
0
20
-43
0
ENDBLK
0
BLOCK
2
DRAWING_946
8
0
10
0
20
0
3
DRAWING_946
70
64
0
POLYLINE
8
2D_LINE_00
66
1
40
0.125
41
0.125
70
1
0
VERTEX
8
2D_LINE_00
10
0
20
0
0
VERTEX
8
2D_LINE_00
10
0
20
86
0
VERTEX
8
2D_LINE_00
10
-5
20
86
0
VERTEX
8
2D_LINE_00
10
-5
20
0
0
SEQEND
0
INSERT
2
SMOOTH_0$125
8
2D_LINE_00
10
0
20
0
0
INSERT
2
SMOOTH_0$125
8
2D_LINE_00
10
0
20
86
0
INSERT
2
SMOOTH_0$125
8
2D_LINE_00
10
-5
20
86
0
INSERT
2
SMOOTH_0$125
8
2D_LINE_00
10
-5
20
0
0
ENDBLK
0
BLOCK
2
DRAWING_949
8
0
10
0
20
0
3
DRAWING_949
70
64
0
POLYLINE
8
2D_LINE_00
66
1
40
0.125
41
0.125
70
1
0
VERTEX
8
2D_LINE_00
10
0
20
0
0
VERTEX
8
2D_LINE_00
10
0
20
86
0
VERTEX
8
2D_LINE_00
10
-5
20
86
0
VERTEX
8
2D_LINE_00
10
-5
20
0
0
SEQEND
0
INSERT
2
SMOOTH_0$125
8
2D_LINE_00
10
0
20
0
0
INSERT
2
SMOOTH_0$125
8
2D_LINE_00
10
0
20
86
0
INSERT
2
SMOOTH_0$125
8
2D_LINE_00
10
-5
20
86
0
INSERT
2
SMOOTH_0$125
8
2D_LINE_00
10
-5
20
0
0
ENDBLK
0
BLOCK
2
D_1dfeghi_950
8
0
10
0
20
0
3
D_1dfeghi_950
70
64
0
POLYLINE
8
DIMENSION7_24
6
TRMIDX_2048
66
1
40
0.0254
41
0.0254
0
VERTEX
8
DIMENSION7_24
10
0
20
0
0
VERTEX
8
DIMENSION7_24
10
0.0006666667
20
0
0
SEQEND
0
POLYLINE
8
DIMENSION7_24
6
TRMIDX_2048
66
1
40
0.0254
41
0.0254
0
VERTEX
8
DIMENSION7_24
10
5
20
0
0
VERTEX
8
DIMENSION7_24
10
5.0006666667
20
0
0
SEQEND
0
POLYLINE
8
DIMENSION1_24
6
TRMIDX_2048
66
1
40
0.254
41
0.254
0
VERTEX
8
DIMENSION1_24
10
0
20
3
0
VERTEX
8
DIMENSION1_24
10
-3.81
20
3
0
SEQEND
0
POLYLINE
8
DIMENSION3_24
6
TRMIDX_2048
66
1
40
0.254
41
0.254
70
1
0
VERTEX
8
DIMENSION3_24
10
0
20
3
0
VERTEX
8
DIMENSION3_24
10
-2.54
20
2.365
0
VERTEX
8
DIMENSION3_24
10
-2.54
20
3.635
0
SEQEND
0
POLYLINE
8
DIMENSION2_24
6
TRMIDX_2048
66
1
40
0.254
41
0.254
0
VERTEX
8
DIMENSION2_24
10
5
20
3
0
VERTEX
8
DIMENSION2_24
10
8.81
20
3
0
SEQEND
0
POLYLINE
8
DIMENSION4_24
6
TRMIDX_2048
66
1
40
0.254
41
0.254
70
1
0
VERTEX
8
DIMENSION4_24
10
5
20
3
0
VERTEX
8
DIMENSION4_24
10
7.54
20
3.635
0
VERTEX
8
DIMENSION4_24
10
7.54
20
2.365
0
SEQEND
0
POLYLINE
8
DIMENSION5_24
6
TRMIDX_2048
66
1
40
0.254
41
0.254
0
VERTEX
8
DIMENSION5_24
10
0
20
1.27
0
VERTEX
8
DIMENSION5_24
10
0
20
4.27
0
SEQEND
0
POLYLINE
8
DIMENSION6_24
6
TRMIDX_2048
66
1
40
0.254
41
0.254
0
VERTEX
8
DIMENSION6_24
10
5
20
1.27
0
VERTEX
8
DIMENSION6_24
10
5
20
4.27
0
SEQEND
0
TEXT
8
TEXT_24
10
-10.5
20
2.5
40
1.778
1
5.0mm
41
0.75
7
W0$254
0
ENDBLK
0
BLOCK
2
D_1dfeghi_951
8
0
10
0
20
0
3
D_1dfeghi_951
70
64
0
POLYLINE
8
DIMENSION7_24
6
TRMIDX_2048
66
1
40
0.0254
41
0.0254
0
VERTEX
8
DIMENSION7_24
10
0
20
0
0
VERTEX
8
DIMENSION7_24
10
0.0006666667
20
0
0
SEQEND
0
POLYLINE
8
DIMENSION7_24
6
TRMIDX_2048
66
1
40
0.0254
41
0.0254
0
VERTEX
8
DIMENSION7_24
10
29
20
0
0
VERTEX
8
DIMENSION7_24
10
29.0006666667
20
0
0
SEQEND
0
POLYLINE
8
DIMENSION1_24
6
TRMIDX_2048
66
1
40
0.254
41
0.254
0
VERTEX
8
DIMENSION1_24
10
0
20
3
0
VERTEX
8
DIMENSION1_24
10
9.8125453333
20
3
0
SEQEND
0
POLYLINE
8
DIMENSION3_24
6
TRMIDX_2048
66
1
40
0.254
41
0.254
70
1
0
VERTEX
8
DIMENSION3_24
10
0
20
3
0
VERTEX
8
DIMENSION3_24
10
2.54
20
3.635
0
VERTEX
8
DIMENSION3_24
10
2.54
20
2.365
0
SEQEND
0
POLYLINE
8
DIMENSION2_24
6
TRMIDX_2048
66
1
40
0.254
41
0.254
0
VERTEX
8
DIMENSION2_24
10
29
20
3
0
VERTEX
8
DIMENSION2_24
10
19.1874546667
20
3
0
SEQEND
0
POLYLINE
8
DIMENSION4_24
6
TRMIDX_2048
66
1
40
0.254
41
0.254
70
1
0
VERTEX
8
DIMENSION4_24
10
29
20
3
0
VERTEX
8
DIMENSION4_24
10
26.46
20
2.365
0
VERTEX
8
DIMENSION4_24
10
26.46
20
3.635
0
SEQEND
0
POLYLINE
8
DIMENSION5_24
6
TRMIDX_2048
66
1
40
0.254
41
0.254
0
VERTEX
8
DIMENSION5_24
10
0
20
1.27
0
VERTEX
8
DIMENSION5_24
10
0
20
4.27
0
SEQEND
0
POLYLINE
8
DIMENSION6_24
6
TRMIDX_2048
66
1
40
0.254
41
0.254
0
VERTEX
8
DIMENSION6_24
10
29
20
1.27
0
VERTEX
8
DIMENSION6_24
10
29
20
4.27
0
SEQEND
0
TEXT
8
TEXT_24
10
10.5745453333
20
2.0475
40
1.778
1
29.0mm
41
0.75
7
W0$254
0
ENDBLK
0
BLOCK
2
D_1dfeghi_952
8
0
10
0
20
0
3
D_1dfeghi_952
70
64
0
POLYLINE
8
DIMENSION7_24
6
TRMIDX_2048
66
1
40
0.0254
41
0.0254
0
VERTEX
8
DIMENSION7_24
10
24
20
0
0
VERTEX
8
DIMENSION7_24
10
24.0006666667
20
0
0
SEQEND
0
POLYLINE
8
DIMENSION7_24
6
TRMIDX_2048
66
1
40
0.0254
41
0.0254
0
VERTEX
8
DIMENSION7_24
10
29
20
0
0
VERTEX
8
DIMENSION7_24
10
29.0006666667
20
0
0
SEQEND
0
POLYLINE
8
DIMENSION1_24
6
TRMIDX_2048
66
1
40
0.254
41
0.254
0
VERTEX
8
DIMENSION1_24
10
24
20
3
0
VERTEX
8
DIMENSION1_24
10
20.19
20
3
0
SEQEND
0
POLYLINE
8
DIMENSION3_24
6
TRMIDX_2048
66
1
40
0.254
41
0.254
70
1
0
VERTEX
8
DIMENSION3_24
10
24
20
3
0
VERTEX
8
DIMENSION3_24
10
21.46
20
2.365
0
VERTEX
8
DIMENSION3_24
10
21.46
20
3.635
0
SEQEND
0
POLYLINE
8
DIMENSION2_24
6
TRMIDX_2048
66
1
40
0.254
41
0.254
0
VERTEX
8
DIMENSION2_24
10
29
20
3
0
VERTEX
8
DIMENSION2_24
10
32.81
20
3
0
SEQEND
0
POLYLINE
8
DIMENSION4_24
6
TRMIDX_2048
66
1
40
0.254
41
0.254
70
1
0
VERTEX
8
DIMENSION4_24
10
29
20
3
0
VERTEX
8
DIMENSION4_24
10
31.54
20
3.635
0
VERTEX
8
DIMENSION4_24
10
31.54
20
2.365
0
SEQEND
0
POLYLINE
8
DIMENSION5_24
6
TRMIDX_2048
66
1
40
0.254
41
0.254
0
VERTEX
8
DIMENSION5_24
10
24
20
1.27
0
VERTEX
8
DIMENSION5_24
10
24
20
4.27
0
SEQEND
0
POLYLINE
8
DIMENSION6_24
6
TRMIDX_2048
66
1
40
0.254
41
0.254
0
VERTEX
8
DIMENSION6_24
10
29
20
1.27
0
VERTEX
8
DIMENSION6_24
10
29
20
4.27
0
SEQEND
0
TEXT
8
TEXT_24
10
33.572
20
2.0475
40
1.778
1
5.0mm
41
0.75
7
W0$254
0
ENDBLK
0
BLOCK
2
D_2dfeghi_953
8
0
10
0
20
0
3
D_2dfeghi_953
70
64
0
POLYLINE
8
DIMENSION7_24
6
TRMIDX_4096
66
1
40
0.0254
41
0.0254
0
VERTEX
8
DIMENSION7_24
10
0
20
0
0
VERTEX
8
DIMENSION7_24
10
0.0006666667
20
0
0
SEQEND
0
POLYLINE
8
DIMENSION7_24
6
TRMIDX_4096
66
1
40
0.0254
41
0.0254
0
VERTEX
8
DIMENSION7_24
10
0
20
5
0
VERTEX
8
DIMENSION7_24
10
0.0006666667
20
5
0
SEQEND
0
POLYLINE
8
DIMENSION1_24
6
TRMIDX_4096
66
1
40
0.254
41
0.254
0
VERTEX
8
DIMENSION1_24
10
-3
20
0
0
VERTEX
8
DIMENSION1_24
10
-3
20
-3.81
0
SEQEND
0
POLYLINE
8
DIMENSION3_24
6
TRMIDX_4096
66
1
40
0.254
41
0.254
70
1
0
VERTEX
8
DIMENSION3_24
10
-3
20
0
0
VERTEX
8
DIMENSION3_24
10
-2.365
20
-2.54
0
VERTEX
8
DIMENSION3_24
10
-3.635
20
-2.54
0
SEQEND
0
POLYLINE
8
DIMENSION2_24
6
TRMIDX_4096
66
1
40
0.254
41
0.254
0
VERTEX
8
DIMENSION2_24
10
-3
20
5
0
VERTEX
8
DIMENSION2_24
10
-3
20
8.81
0
SEQEND
0
POLYLINE
8
DIMENSION4_24
6
TRMIDX_4096
66
1
40
0.254
41
0.254
70
1
0
VERTEX
8
DIMENSION4_24
10
-3
20
5
0
VERTEX
8
DIMENSION4_24
10
-3.635
20
7.54
0
VERTEX
8
DIMENSION4_24
10
-2.365
20
7.54
0
SEQEND
0
POLYLINE
8
DIMENSION5_24
6
TRMIDX_4096
66
1
40
0.254
41
0.254
0
VERTEX
8
DIMENSION5_24
10
-1.27
20
0
0
VERTEX
8
DIMENSION5_24
10
-4.27
20
0
0
SEQEND
0
POLYLINE
8
DIMENSION6_24
6
TRMIDX_4096
66
1
40
0.254
41
0.254
0
VERTEX
8
DIMENSION6_24
10
-1.27
20
5
0
VERTEX
8
DIMENSION6_24
10
-4.27
20
5
0
SEQEND
0
TEXT
8
TEXT_24
10
-5.5
20
-1.5
40
1.778
1
5.0mm
50
90
41
0.75
7
W0$254
0
ENDBLK
0
BLOCK
2
D_2daefgh_954
8
0
10
0
20
0
3
D_2daefgh_954
70
64
0
POLYLINE
8
DIMENSION7_24
6
TRMIDX_4096
66
1
40
0.0254
41
0.0254
0
VERTEX
8
DIMENSION7_24
10
0
20
0
0
VERTEX
8
DIMENSION7_24
10
0.0006666667
20
0
0
SEQEND
0
POLYLINE
8
DIMENSION7_24
6
TRMIDX_4096
66
1
40
0.0254
41
0.0254
0
VERTEX
8
DIMENSION7_24
10
0.1
20
18.2
0
VERTEX
8
DIMENSION7_24
10
0.1006666667
20
18.2
0
SEQEND
0
POLYLINE
8
DIMENSION1_24
6
TRMIDX_4096
66
1
40
0.254
41
0.254
0
VERTEX
8
DIMENSION1_24
10
-3
20
0
0
VERTEX
8
DIMENSION1_24
10
-3
20
18.2
0
SEQEND
0
POLYLINE
8
DIMENSION3_24
6
TRMIDX_4096
66
1
40
0.254
41
0.254
70
1
0
VERTEX
8
DIMENSION3_24
10
-3
20
0
0
VERTEX
8
DIMENSION3_24
10
-3.635
20
2.54
0
VERTEX
8
DIMENSION3_24
10
-2.365
20
2.54
0
SEQEND
0
POLYLINE
8
DIMENSION4_24
6
TRMIDX_4096
66
1
40
0.254
41
0.254
70
1
0
VERTEX
8
DIMENSION4_24
10
-3
20
18.2
0
VERTEX
8
DIMENSION4_24
10
-2.365
20
15.66
0
VERTEX
8
DIMENSION4_24
10
-3.635
20
15.66
0
SEQEND
0
POLYLINE
8
DIMENSION5_24
6
TRMIDX_4096
66
1
40
0.254
41
0.254
0
VERTEX
8
DIMENSION5_24
10
-1.27
20
0
0
VERTEX
8
DIMENSION5_24
10
-4.27
20
0
0
SEQEND
0
POLYLINE
8
DIMENSION6_24
6
TRMIDX_4096
66
1
40
0.254
41
0.254
0
VERTEX
8
DIMENSION6_24
10
-1.17
20
18.2
0
VERTEX
8
DIMENSION6_24
10
-4.27
20
18.2
0
SEQEND
0
TEXT
8
TEXT_24
10
-3.8
20
6.2
40
1.778
1
18.2mm
50
90
41
0.75
7
W0$254
0
ENDBLK
0
BLOCK
2
D_2dfeghi_955
8
0
10
0
20
0
3
D_2dfeghi_955
70
64
0
POLYLINE
8
DIMENSION7_24
6
TRMIDX_4096
66
1
40
0.0254
41
0.0254
0
VERTEX
8
DIMENSION7_24
10
0
20
0
0
VERTEX
8
DIMENSION7_24
10
0.0006666667
20
0
0
SEQEND
0
POLYLINE
8
DIMENSION7_24
6
TRMIDX_4096
66
1
40
0.0254
41
0.0254
0
VERTEX
8
DIMENSION7_24
10
0
20
5
0
VERTEX
8
DIMENSION7_24
10
0.0006666667
20
5
0
SEQEND
0
POLYLINE
8
DIMENSION1_24
6
TRMIDX_4096
66
1
40
0.254
41
0.254
0
VERTEX
8
DIMENSION1_24
10
-3
20
0
0
VERTEX
8
DIMENSION1_24
10
-3
20
-3.81
0
SEQEND
0
POLYLINE
8
DIMENSION3_24
6
TRMIDX_4096
66
1
40
0.254
41
0.254
70
1
0
VERTEX
8
DIMENSION3_24
10
-3
20
0
0
VERTEX
8
DIMENSION3_24
10
-2.365
20
-2.54
0
VERTEX
8
DIMENSION3_24
10
-3.635
20
-2.54
0
SEQEND
0
POLYLINE
8
DIMENSION2_24
6
TRMIDX_4096
66
1
40
0.254
41
0.254
0
VERTEX
8
DIMENSION2_24
10
-3
20
5
0
VERTEX
8
DIMENSION2_24
10
-3
20
8.81
0
SEQEND
0
POLYLINE
8
DIMENSION4_24
6
TRMIDX_4096
66
1
40
0.254
41
0.254
70
1
0
VERTEX
8
DIMENSION4_24
10
-3
20
5
0
VERTEX
8
DIMENSION4_24
10
-3.635
20
7.54
0
VERTEX
8
DIMENSION4_24
10
-2.365
20
7.54
0
SEQEND
0
POLYLINE
8
DIMENSION5_24
6
TRMIDX_4096
66
1
40
0.254
41
0.254
0
VERTEX
8
DIMENSION5_24
10
-1.27
20
0
0
VERTEX
8
DIMENSION5_24
10
-4.27
20
0
0
SEQEND
0
POLYLINE
8
DIMENSION6_24
6
TRMIDX_4096
66
1
40
0.254
41
0.254
0
VERTEX
8
DIMENSION6_24
10
-1.27
20
5
0
VERTEX
8
DIMENSION6_24
10
-4.27
20
5
0
SEQEND
0
TEXT
8
TEXT_24
10
-5.5
20
-1.5
40
1.778
1
5.0mm
50
90
41
0.75
7
W0$254
0
ENDBLK
0
BLOCK
2
D_2dfeghi_956
8
0
10
0
20
0
3
D_2dfeghi_956
70
64
0
POLYLINE
8
DIMENSION7_24
6
TRMIDX_4096
66
1
40
0.0254
41
0.0254
0
VERTEX
8
DIMENSION7_24
10
0
20
0
0
VERTEX
8
DIMENSION7_24
10
0.0006666667
20
0
0
SEQEND
0
POLYLINE
8
DIMENSION7_24
6
TRMIDX_4096
66
1
40
0.0254
41
0.0254
0
VERTEX
8
DIMENSION7_24
10
0
20
5
0
VERTEX
8
DIMENSION7_24
10
0.0006666667
20
5
0
SEQEND
0
POLYLINE
8
DIMENSION1_24
6
TRMIDX_4096
66
1
40
0.254
41
0.254
0
VERTEX
8
DIMENSION1_24
10
3
20
0
0
VERTEX
8
DIMENSION1_24
10
3
20
-3.81
0
SEQEND
0
POLYLINE
8
DIMENSION3_24
6
TRMIDX_4096
66
1
40
0.254
41
0.254
70
1
0
VERTEX
8
DIMENSION3_24
10
3
20
0
0
VERTEX
8
DIMENSION3_24
10
3.635
20
-2.54
0
VERTEX
8
DIMENSION3_24
10
2.365
20
-2.54
0
SEQEND
0
POLYLINE
8
DIMENSION2_24
6
TRMIDX_4096
66
1
40
0.254
41
0.254
0
VERTEX
8
DIMENSION2_24
10
3
20
5
0
VERTEX
8
DIMENSION2_24
10
3
20
8.81
0
SEQEND
0
POLYLINE
8
DIMENSION4_24
6
TRMIDX_4096
66
1
40
0.254
41
0.254
70
1
0
VERTEX
8
DIMENSION4_24
10
3
20
5
0
VERTEX
8
DIMENSION4_24
10
2.365
20
7.54
0
VERTEX
8
DIMENSION4_24
10
3.635
20
7.54
0
SEQEND
0
POLYLINE
8
DIMENSION5_24
6
TRMIDX_4096
66
1
40
0.254
41
0.254
0
VERTEX
8
DIMENSION5_24
10
1.27
20
0
0
VERTEX
8
DIMENSION5_24
10
4.27
20
0
0
SEQEND
0
POLYLINE
8
DIMENSION6_24
6
TRMIDX_4096
66
1
40
0.254
41
0.254
0
VERTEX
8
DIMENSION6_24
10
1.27
20
5
0
VERTEX
8
DIMENSION6_24
10
4.27
20
5
0
SEQEND
0
TEXT
8
TEXT_24
10
3.5
20
10
40
1.778
1
5.0mm
50
90
41
0.75
7
W0$254
0
ENDBLK
0
BLOCK
2
D_2dfeghi_957
8
0
10
0
20
0
3
D_2dfeghi_957
70
64
0
POLYLINE
8
DIMENSION7_24
6
TRMIDX_4096
66
1
40
0.0254
41
0.0254
0
VERTEX
8
DIMENSION7_24
10
0
20
0
0
VERTEX
8
DIMENSION7_24
10
0.0006666667
20
0
0
SEQEND
0
POLYLINE
8
DIMENSION7_24
6
TRMIDX_4096
66
1
40
0.0254
41
0.0254
0
VERTEX
8
DIMENSION7_24
10
0
20
5
0
VERTEX
8
DIMENSION7_24
10
0.0006666667
20
5
0
SEQEND
0
POLYLINE
8
DIMENSION1_24
6
TRMIDX_4096
66
1
40
0.254
41
0.254
0
VERTEX
8
DIMENSION1_24
10
3
20
0
0
VERTEX
8
DIMENSION1_24
10
3
20
-3.81
0
SEQEND
0
POLYLINE
8
DIMENSION3_24
6
TRMIDX_4096
66
1
40
0.254
41
0.254
70
1
0
VERTEX
8
DIMENSION3_24
10
3
20
0
0
VERTEX
8
DIMENSION3_24
10
3.635
20
-2.54
0
VERTEX
8
DIMENSION3_24
10
2.365
20
-2.54
0
SEQEND
0
POLYLINE
8
DIMENSION2_24
6
TRMIDX_4096
66
1
40
0.254
41
0.254
0
VERTEX
8
DIMENSION2_24
10
3
20
5
0
VERTEX
8
DIMENSION2_24
10
3
20
8.81
0
SEQEND
0
POLYLINE
8
DIMENSION4_24
6
TRMIDX_4096
66
1
40
0.254
41
0.254
70
1
0
VERTEX
8
DIMENSION4_24
10
3
20
5
0
VERTEX
8
DIMENSION4_24
10
2.365
20
7.54
0
VERTEX
8
DIMENSION4_24
10
3.635
20
7.54
0
SEQEND
0
POLYLINE
8
DIMENSION5_24
6
TRMIDX_4096
66
1
40
0.254
41
0.254
0
VERTEX
8
DIMENSION5_24
10
1.27
20
0
0
VERTEX
8
DIMENSION5_24
10
4.27
20
0
0
SEQEND
0
POLYLINE
8
DIMENSION6_24
6
TRMIDX_4096
66
1
40
0.254
41
0.254
0
VERTEX
8
DIMENSION6_24
10
1.27
20
5
0
VERTEX
8
DIMENSION6_24
10
4.27
20
5
0
SEQEND
0
TEXT
8
TEXT_24
10
3.5
20
-11
40
1.778
1
5.0mm
50
90
41
0.75
7
W0$254
0
ENDBLK
0
BLOCK
2
D_1dfeghi_958
8
0
10
0
20
0
3
D_1dfeghi_958
70
64
0
POLYLINE
8
DIMENSION7_24
6
TRMIDX_2048
66
1
40
0.0254
41
0.0254
0
VERTEX
8
DIMENSION7_24
10
-60
20
0
0
VERTEX
8
DIMENSION7_24
10
-59.9993333333
20
0
0
SEQEND
0
POLYLINE
8
DIMENSION7_24
6
TRMIDX_2048
66
1
40
0.0254
41
0.0254
0
VERTEX
8
DIMENSION7_24
10
-65
20
0
0
VERTEX
8
DIMENSION7_24
10
-64.9993333333
20
0
0
SEQEND
0
POLYLINE
8
DIMENSION1_24
6
TRMIDX_2048
66
1
40
0.254
41
0.254
0
VERTEX
8
DIMENSION1_24
10
-60
20
-6
0
VERTEX
8
DIMENSION1_24
10
-56.19
20
-6
0
SEQEND
0
POLYLINE
8
DIMENSION3_24
6
TRMIDX_2048
66
1
40
0.254
41
0.254
70
1
0
VERTEX
8
DIMENSION3_24
10
-60
20
-6
0
VERTEX
8
DIMENSION3_24
10
-57.46
20
-5.365
0
VERTEX
8
DIMENSION3_24
10
-57.46
20
-6.635
0
SEQEND
0
POLYLINE
8
DIMENSION2_24
6
TRMIDX_2048
66
1
40
0.254
41
0.254
0
VERTEX
8
DIMENSION2_24
10
-65
20
-6
0
VERTEX
8
DIMENSION2_24
10
-68.81
20
-6
0
SEQEND
0
POLYLINE
8
DIMENSION4_24
6
TRMIDX_2048
66
1
40
0.254
41
0.254
70
1
0
VERTEX
8
DIMENSION4_24
10
-65
20
-6
0
VERTEX
8
DIMENSION4_24
10
-67.54
20
-6.635
0
VERTEX
8
DIMENSION4_24
10
-67.54
20
-5.365
0
SEQEND
0
POLYLINE
8
DIMENSION5_24
6
TRMIDX_2048
66
1
40
0.254
41
0.254
0
VERTEX
8
DIMENSION5_24
10
-60
20
-1.27
0
VERTEX
8
DIMENSION5_24
10
-60
20
-7.27
0
SEQEND
0
POLYLINE
8
DIMENSION6_24
6
TRMIDX_2048
66
1
40
0.254
41
0.254
0
VERTEX
8
DIMENSION6_24
10
-65
20
-1.27
0
VERTEX
8
DIMENSION6_24
10
-65
20
-7.27
0
SEQEND
0
TEXT
8
TEXT_24
10
-76.2106366667
20
-6.9525
40
1.778
1
5.0mm
41
0.75
7
W0$254
0
ENDBLK
0
BLOCK
2
D_1dfeghi_959
8
0
10
0
20
0
3
D_1dfeghi_959
70
64
0
POLYLINE
8
DIMENSION7_24
6
TRMIDX_2048
66
1
40
0.0254
41
0.0254
0
VERTEX
8
DIMENSION7_24
10
-60
20
0
0
VERTEX
8
DIMENSION7_24
10
-59.9993333333
20
0
0
SEQEND
0
POLYLINE
8
DIMENSION7_24
6
TRMIDX_2048
66
1
40
0.0254
41
0.0254
0
VERTEX
8
DIMENSION7_24
10
-65
20
0
0
VERTEX
8
DIMENSION7_24
10
-64.9993333333
20
0
0
SEQEND
0
POLYLINE
8
DIMENSION1_24
6
TRMIDX_2048
66
1
40
0.254
41
0.254
0
VERTEX
8
DIMENSION1_24
10
-60
20
-6
0
VERTEX
8
DIMENSION1_24
10
-56.19
20
-6
0
SEQEND
0
POLYLINE
8
DIMENSION3_24
6
TRMIDX_2048
66
1
40
0.254
41
0.254
70
1
0
VERTEX
8
DIMENSION3_24
10
-60
20
-6
0
VERTEX
8
DIMENSION3_24
10
-57.46
20
-5.365
0
VERTEX
8
DIMENSION3_24
10
-57.46
20
-6.635
0
SEQEND
0
POLYLINE
8
DIMENSION2_24
6
TRMIDX_2048
66
1
40
0.254
41
0.254
0
VERTEX
8
DIMENSION2_24
10
-65
20
-6
0
VERTEX
8
DIMENSION2_24
10
-68.81
20
-6
0
SEQEND
0
POLYLINE
8
DIMENSION4_24
6
TRMIDX_2048
66
1
40
0.254
41
0.254
70
1
0
VERTEX
8
DIMENSION4_24
10
-65
20
-6
0
VERTEX
8
DIMENSION4_24
10
-67.54
20
-6.635
0
VERTEX
8
DIMENSION4_24
10
-67.54
20
-5.365
0
SEQEND
0
POLYLINE
8
DIMENSION5_24
6
TRMIDX_2048
66
1
40
0.254
41
0.254
0
VERTEX
8
DIMENSION5_24
10
-60
20
-1.27
0
VERTEX
8
DIMENSION5_24
10
-60
20
-7.27
0
SEQEND
0
POLYLINE
8
DIMENSION6_24
6
TRMIDX_2048
66
1
40
0.254
41
0.254
0
VERTEX
8
DIMENSION6_24
10
-65
20
-1.27
0
VERTEX
8
DIMENSION6_24
10
-65
20
-7.27
0
SEQEND
0
TEXT
8
TEXT_24
10
-76.2106366667
20
-6.9525
40
1.778
1
5.0mm
41
0.75
7
W0$254
0
ENDBLK
0
BLOCK
2
D_1dfeghi_960
8
0
10
0
20
0
3
D_1dfeghi_960
70
64
0
POLYLINE
8
DIMENSION7_24
6
TRMIDX_2048
66
1
40
0.0254
41
0.0254
0
VERTEX
8
DIMENSION7_24
10
-37
20
0
0
VERTEX
8
DIMENSION7_24
10
-36.9993333333
20
0
0
SEQEND
0
POLYLINE
8
DIMENSION7_24
6
TRMIDX_2048
66
1
40
0.0254
41
0.0254
0
VERTEX
8
DIMENSION7_24
10
-65
20
0
0
VERTEX
8
DIMENSION7_24
10
-64.9993333333
20
0
0
SEQEND
0
POLYLINE
8
DIMENSION1_24
6
TRMIDX_2048
66
1
40
0.254
41
0.254
0
VERTEX
8
DIMENSION1_24
10
-37
20
-6
0
VERTEX
8
DIMENSION1_24
10
-46.2836813333
20
-6
0
SEQEND
0
POLYLINE
8
DIMENSION3_24
6
TRMIDX_2048
66
1
40
0.254
41
0.254
70
1
0
VERTEX
8
DIMENSION3_24
10
-37
20
-6
0
VERTEX
8
DIMENSION3_24
10
-39.54
20
-6.635
0
VERTEX
8
DIMENSION3_24
10
-39.54
20
-5.365
0
SEQEND
0
POLYLINE
8
DIMENSION2_24
6
TRMIDX_2048
66
1
40
0.254
41
0.254
0
VERTEX
8
DIMENSION2_24
10
-65
20
-6
0
VERTEX
8
DIMENSION2_24
10
-55.716318
20
-6
0
SEQEND
0
POLYLINE
8
DIMENSION4_24
6
TRMIDX_2048
66
1
40
0.254
41
0.254
70
1
0
VERTEX
8
DIMENSION4_24
10
-65
20
-6
0
VERTEX
8
DIMENSION4_24
10
-62.46
20
-5.365
0
VERTEX
8
DIMENSION4_24
10
-62.46
20
-6.635
0
SEQEND
0
POLYLINE
8
DIMENSION5_24
6
TRMIDX_2048
66
1
40
0.254
41
0.254
0
VERTEX
8
DIMENSION5_24
10
-37
20
-1.27
0
VERTEX
8
DIMENSION5_24
10
-37
20
-7.27
0
SEQEND
0
POLYLINE
8
DIMENSION6_24
6
TRMIDX_2048
66
1
40
0.254
41
0.254
0
VERTEX
8
DIMENSION6_24
10
-65
20
-1.27
0
VERTEX
8
DIMENSION6_24
10
-65
20
-7.27
0
SEQEND
0
TEXT
8
TEXT_24
10
-54.954318
20
-6.9525
40
1.778
1
28.0mm
41
0.75
7
W0$254
0
ENDBLK
0
BLOCK
2
DRAWING_961
8
0
10
0
20
0
3
DRAWING_961
70
64
0
POLYLINE
8
2D_LINE_00
66
1
40
0.125
41
0.125
70
1
0
VERTEX
8
2D_LINE_00
10
0
20
0
0
VERTEX
8
2D_LINE_00
10
65
20
0
0
VERTEX
8
2D_LINE_00
10
65
20
-43
0
VERTEX
8
2D_LINE_00
10
0
20
-43
0
SEQEND
0
INSERT
2
SMOOTH_0$125
8
2D_LINE_00
10
0
20
0
0
INSERT
2
SMOOTH_0$125
8
2D_LINE_00
10
65
20
0
0
INSERT
2
SMOOTH_0$125
8
2D_LINE_00
10
65
20
-43
0
INSERT
2
SMOOTH_0$125
8
2D_LINE_00
10
0
20
-43
0
ENDBLK
0
BLOCK
2
DRAWING_962
8
0
10
0
20
0
3
DRAWING_962
70
64
0
POLYLINE
8
2D_LINE_00
66
1
40
0.125
41
0.125
70
1
0
VERTEX
8
2D_LINE_00
10
0
20
0
0
VERTEX
8
2D_LINE_00
10
65
20
0
0
VERTEX
8
2D_LINE_00
10
65
20
-43
0
VERTEX
8
2D_LINE_00
10
0
20
-43
0
SEQEND
0
INSERT
2
SMOOTH_0$125
8
2D_LINE_00
10
0
20
0
0
INSERT
2
SMOOTH_0$125
8
2D_LINE_00
10
65
20
0
0
INSERT
2
SMOOTH_0$125
8
2D_LINE_00
10
65
20
-43
0
INSERT
2
SMOOTH_0$125
8
2D_LINE_00
10
0
20
-43
0
ENDBLK
999
*** POWERPCB  COMPONENT ***
0
BLOCK
2
PART_TOP_0
8
0
10
0
20
0
3
PART_TOP_0
70
64
0
INSERT
2
SYM_TOP_3
8
0
10
0
20
0
0
INSERT
2
PKG_0
8
0
10
0
20
0
0
TEXT
8
LABEL_INFO
10
-8.3
20
2.5999993333
40
1.05
1
0 324000000 0 0 0 1
50
180
41
0.75
7
W0$125
0
TEXT
8
LABEL_ATTRIBUTE
10
-8.3
20
2.5999993333
40
1.05
1
Ref.Des.
50
180
41
0.75
7
W0$125
0
TEXT
8
PART_NAME_26
10
-8.3
20
2.5999993333
40
1.05
1
CN1
50
180
41
0.75
7
W0$125
0
TEXT
8
LABEL_INFO
10
-10.4250026667
20
3.9583173333
40
0.889
1
0 0 0 0 0 1
41
0.75
7
W0$127
0
TEXT
8
LABEL_ATTRIBUTE
10
-10.4250026667
20
3.9583173333
40
0.889
1
Comment
41
0.75
7
W0$127
0
TEXT
8
ATTRIBUTE_26
10
-10.4250026667
20
3.9583173333
40
0.889
1
 
41
0.75
7
W0$127
0
TEXT
8
PART_TYPE_TOP
10
-10.4250026667
20
2.6883173333
40
0.889
1
12505WR-12
41
0.75
7
W0$127
0
TEXT
8
PART_INFO
10
-10.4250026667
20
1.4183173333
40
0.889
1
000000
41
0.75
7
W0$127
0
TEXT
8
PART_PTS
10
-10.4250026667
20
0.1483173333
40
0.889
1
1 2 3 4 5 6 7 8 9 10 11 12 13 14 
41
0.75
7
W0$127
0
ENDBLK
0
BLOCK
2
PART_TOP_1
8
0
10
0
20
0
3
PART_TOP_1
70
64
0
INSERT
2
SYM_TOP_5
8
0
10
0
20
0
0
INSERT
2
PKG_2
8
0
10
0
20
0
0
TEXT
8
LABEL_INFO
10
16.5
20
1.3
40
1.05
1
0 0 0 0 0 1
41
0.75
7
W0$125
0
TEXT
8
LABEL_ATTRIBUTE
10
16.5
20
1.3
40
1.05
1
Ref.Des.
41
0.75
7
W0$125
0
TEXT
8
PART_NAME_01
10
16.5
20
1.3
40
1.05
1
CN3
41
0.75
7
W0$125
0
TEXT
8
LABEL_INFO
10
1
20
0
40
0.35
1
0 0 0 2 0 1
73
2
11
1
21
0
41
0.75
7
W0$01
0
TEXT
8
LABEL_ATTRIBUTE
10
1
20
0
40
0.35
1
PartType
73
2
11
1
21
0
41
0.75
7
W0$01
0
TEXT
8
PART_TYPE_01
10
1
20
0
40
0.35
1
IS100-L30B-C23/PINSWAP
73
3
11
1
21
0
41
0.75
7
W0$01
0
TEXT
8
PART_INFO
10
1
20
-0.5
40
0.35
1
000000
73
3
11
1
21
-0.5
41
0.75
7
W0$01
0
TEXT
8
PART_PTS
10
1
20
-1
40
0.35
1
1 2 3 4 5 6 7 8 9 10 11 12 13 14 15 16 17 18 19 20 21 22 23 24 25 26 27 28 29 30 31 32 33 34 
73
3
11
1
21
-1
41
0.75
7
W0$01
0
ENDBLK
0
BLOCK
2
PART_TOP_2
8
0
10
0
20
0
3
PART_TOP_2
70
64
0
INSERT
2
SYM_TOP_6
8
0
10
0
20
0
0
INSERT
2
PKG_3
8
0
10
0
20
0
0
TEXT
8
LABEL_INFO
10
-1.397
20
-0.3302
40
1.05
1
0 0 0 0 0 1
41
0.75
7
W0$125
0
TEXT
8
LABEL_ATTRIBUTE
10
-1.397
20
-0.3302
40
1.05
1
Ref.Des.
41
0.75
7
W0$125
0
TEXT
8
PART_NAME_01
10
-1.397
20
-0.3302
40
1.05
1
H1
41
0.75
7
W0$125
0
TEXT
8
PART_TYPE_TOP
10
-1.397
20
-1.8302
40
1.05
1
H8D3.3
41
0.75
7
W0$125
0
TEXT
8
PART_INFO
10
-1.397
20
-3.3302
40
1.05
1
000000
41
0.75
7
W0$125
0
TEXT
8
PART_PTS
10
-1.397
20
-4.8302
40
1.05
1
1 2 3 4 5 6 7 8 9 
41
0.75
7
W0$125
0
ENDBLK
0
BLOCK
2
PART_TOP_3
8
0
10
0
20
0
3
PART_TOP_3
70
64
0
INSERT
2
SYM_TOP_6
8
0
10
0
20
0
0
INSERT
2
PKG_3
8
0
10
0
20
0
0
TEXT
8
LABEL_INFO
10
-1.397
20
-0.3302
40
1.05
1
0 0 0 0 0 1
41
0.75
7
W0$125
0
TEXT
8
LABEL_ATTRIBUTE
10
-1.397
20
-0.3302
40
1.05
1
Ref.Des.
41
0.75
7
W0$125
0
TEXT
8
PART_NAME_01
10
-1.397
20
-0.3302
40
1.05
1
H2
41
0.75
7
W0$125
0
TEXT
8
PART_TYPE_TOP
10
-1.397
20
-1.8302
40
1.05
1
H8D3.3
41
0.75
7
W0$125
0
TEXT
8
PART_INFO
10
-1.397
20
-3.3302
40
1.05
1
000000
41
0.75
7
W0$125
0
TEXT
8
PART_PTS
10
-1.397
20
-4.8302
40
1.05
1
1 2 3 4 5 6 7 8 9 
41
0.75
7
W0$125
0
ENDBLK
0
BLOCK
2
PART_TOP_4
8
0
10
0
20
0
3
PART_TOP_4
70
64
0
INSERT
2
SYM_TOP_6
8
0
10
0
20
0
0
INSERT
2
PKG_3
8
0
10
0
20
0
0
TEXT
8
LABEL_INFO
10
-1.397
20
-0.3302
40
1.05
1
0 0 0 0 0 1
41
0.75
7
W0$125
0
TEXT
8
LABEL_ATTRIBUTE
10
-1.397
20
-0.3302
40
1.05
1
Ref.Des.
41
0.75
7
W0$125
0
TEXT
8
PART_NAME_01
10
-1.397
20
-0.3302
40
1.05
1
H3
41
0.75
7
W0$125
0
TEXT
8
PART_TYPE_TOP
10
-1.397
20
-1.8302
40
1.05
1
H8D3.3
41
0.75
7
W0$125
0
TEXT
8
PART_INFO
10
-1.397
20
-3.3302
40
1.05
1
000000
41
0.75
7
W0$125
0
TEXT
8
PART_PTS
10
-1.397
20
-4.8302
40
1.05
1
1 2 3 4 5 6 7 8 9 
41
0.75
7
W0$125
0
ENDBLK
0
BLOCK
2
PART_TOP_5
8
0
10
0
20
0
3
PART_TOP_5
70
64
0
INSERT
2
SYM_TOP_6
8
0
10
0
20
0
0
INSERT
2
PKG_3
8
0
10
0
20
0
0
TEXT
8
LABEL_INFO
10
-1.397
20
-0.3302
40
1.05
1
0 0 0 0 0 1
41
0.75
7
W0$125
0
TEXT
8
LABEL_ATTRIBUTE
10
-1.397
20
-0.3302
40
1.05
1
Ref.Des.
41
0.75
7
W0$125
0
TEXT
8
PART_NAME_01
10
-1.397
20
-0.3302
40
1.05
1
H4
41
0.75
7
W0$125
0
TEXT
8
PART_TYPE_TOP
10
-1.397
20
-1.8302
40
1.05
1
H8D3.3
41
0.75
7
W0$125
0
TEXT
8
PART_INFO
10
-1.397
20
-3.3302
40
1.05
1
000000
41
0.75
7
W0$125
0
TEXT
8
PART_PTS
10
-1.397
20
-4.8302
40
1.05
1
1 2 3 4 5 6 7 8 9 
41
0.75
7
W0$125
0
ENDBLK
0
BLOCK
2
PART_TOP_6
8
0
10
0
20
0
3
PART_TOP_6
70
64
0
INSERT
2
SYM_TOP_4
8
0
10
0
20
0
0
INSERT
2
PKG_1
8
0
10
0
20
0
0
TEXT
8
LABEL_INFO
10
12.1
20
5
40
1.05
1
0 324000000 0 0 0 1
50
180
41
0.75
7
W0$125
0
TEXT
8
LABEL_ATTRIBUTE
10
12.1
20
5
40
1.05
1
Ref.Des.
50
180
41
0.75
7
W0$125
0
TEXT
8
PART_NAME_01
10
12.1
20
5
40
1.05
1
CN2
50
180
41
0.75
7
W0$125
0
TEXT
8
LABEL_INFO
10
-1.1262
20
-2.45
40
1.0668
1
0 0 0 0 0 1
41
0.75
7
W0$1524
0
TEXT
8
LABEL_ATTRIBUTE
10
-1.1262
20
-2.45
40
1.0668
1
PartType
41
0.75
7
W0$1524
0
TEXT
8
PART_TYPE_01
10
-1.1262
20
-2.45
40
1.0668
1
HD1S040HA1/PS
41
0.75
7
W0$1524
0
TEXT
8
PART_INFO
10
-1.1262
20
-3.974
40
1.0668
1
000000
41
0.75
7
W0$1524
0
TEXT
8
PART_PTS
10
-1.1262
20
-5.498
40
1.0668
1
1 2 3 4 5 6 7 8 9 10 11 12 13 14 15 16 17 18 19 20 21 22 23 24 25 26 27 28 29 30 31 32 33 34 35 36 37 38 39 40 41 42 43 44 
41
0.75
7
W0$1524
0
ENDBLK
0
BLOCK
2
PART_TOP_7
8
0
10
0
20
0
3
PART_TOP_7
70
64
0
INSERT
2
SYM_TOP_7
8
0
10
0
20
0
0
INSERT
2
PKG_4
8
0
10
0
20
0
0
TEXT
8
PART_NAME_TOP
10
0
20
0
40
1.778
1
HH1
41
0.75
7
W0$254
0
TEXT
8
PART_TYPE_TOP
10
0
20
-2.54
40
1.778
1
H4_NP
41
0.75
7
W0$254
0
TEXT
8
PART_INFO
10
0
20
-5.08
40
1.778
1
000000
41
0.75
7
W0$254
0
TEXT
8
PART_PTS
10
0
20
-7.62
40
1.778
1
1 
41
0.75
7
W0$254
0
ENDBLK
0
BLOCK
2
PART_TOP_8
8
0
10
0
20
0
3
PART_TOP_8
70
64
0
INSERT
2
SYM_TOP_8
8
0
10
0
20
0
0
INSERT
2
PKG_5
8
0
10
0
20
0
0
TEXT
8
PART_NAME_TOP
10
0
20
0
40
1.778
1
HH2
41
0.75
7
W0$254
0
TEXT
8
PART_TYPE_TOP
10
0
20
-2.54
40
1.778
1
MARK1
41
0.75
7
W0$254
0
TEXT
8
PART_INFO
10
0
20
-5.08
40
1.778
1
000000
41
0.75
7
W0$254
0
TEXT
8
PART_PTS
10
0
20
-7.62
40
1.778
1
1 
41
0.75
7
W0$254
0
ENDBLK
0
BLOCK
2
PART_TOP_9
8
0
10
0
20
0
3
PART_TOP_9
70
64
0
INSERT
2
SYM_TOP_7
8
0
10
0
20
0
0
INSERT
2
PKG_4
8
0
10
0
20
0
0
TEXT
8
PART_NAME_TOP
10
0
20
0
40
1.778
1
HH3
41
0.75
7
W0$254
0
TEXT
8
PART_TYPE_TOP
10
0
20
-2.54
40
1.778
1
H4_NP
41
0.75
7
W0$254
0
TEXT
8
PART_INFO
10
0
20
-5.08
40
1.778
1
000000
41
0.75
7
W0$254
0
TEXT
8
PART_PTS
10
0
20
-7.62
40
1.778
1
1 
41
0.75
7
W0$254
0
ENDBLK
0
BLOCK
2
PART_TOP_10
8
0
10
0
20
0
3
PART_TOP_10
70
64
0
INSERT
2
SYM_TOP_8
8
0
10
0
20
0
0
INSERT
2
PKG_5
8
0
10
0
20
0
0
TEXT
8
PART_NAME_TOP
10
0
20
0
40
1.778
1
HH4
41
0.75
7
W0$254
0
TEXT
8
PART_TYPE_TOP
10
0
20
-2.54
40
1.778
1
MARK1
41
0.75
7
W0$254
0
TEXT
8
PART_INFO
10
0
20
-5.08
40
1.778
1
000000
41
0.75
7
W0$254
0
TEXT
8
PART_PTS
10
0
20
-7.62
40
1.778
1
1 
41
0.75
7
W0$254
0
ENDBLK
0
BLOCK
2
PART_TOP_11
8
0
10
0
20
0
3
PART_TOP_11
70
64
0
INSERT
2
SYM_TOP_7
8
0
10
0
20
0
0
INSERT
2
PKG_4
8
0
10
0
20
0
0
TEXT
8
PART_NAME_TOP
10
0
20
0
40
1.778
1
HH5
41
0.75
7
W0$254
0
TEXT
8
PART_TYPE_TOP
10
0
20
-2.54
40
1.778
1
H4_NP
41
0.75
7
W0$254
0
TEXT
8
PART_INFO
10
0
20
-5.08
40
1.778
1
000000
41
0.75
7
W0$254
0
TEXT
8
PART_PTS
10
0
20
-7.62
40
1.778
1
1 
41
0.75
7
W0$254
0
ENDBLK
0
BLOCK
2
PART_TOP_12
8
0
10
0
20
0
3
PART_TOP_12
70
64
0
INSERT
2
SYM_TOP_8
8
0
10
0
20
0
0
INSERT
2
PKG_5
8
0
10
0
20
0
0
TEXT
8
PART_NAME_TOP
10
0
20
0
40
1.778
1
HH6
41
0.75
7
W0$254
0
TEXT
8
PART_TYPE_TOP
10
0
20
-2.54
40
1.778
1
MARK1
41
0.75
7
W0$254
0
TEXT
8
PART_INFO
10
0
20
-5.08
40
1.778
1
000000
41
0.75
7
W0$254
0
TEXT
8
PART_PTS
10
0
20
-7.62
40
1.778
1
1 
41
0.75
7
W0$254
0
ENDBLK
0
BLOCK
2
PART_TOP_13
8
0
10
0
20
0
3
PART_TOP_13
70
64
0
INSERT
2
SYM_TOP_7
8
0
10
0
20
0
0
INSERT
2
PKG_4
8
0
10
0
20
0
0
TEXT
8
PART_NAME_TOP
10
0
20
0
40
1.778
1
HH7
41
0.75
7
W0$254
0
TEXT
8
PART_TYPE_TOP
10
0
20
-2.54
40
1.778
1
H4_NP
41
0.75
7
W0$254
0
TEXT
8
PART_INFO
10
0
20
-5.08
40
1.778
1
000000
41
0.75
7
W0$254
0
TEXT
8
PART_PTS
10
0
20
-7.62
40
1.778
1
1 
41
0.75
7
W0$254
0
ENDBLK
0
BLOCK
2
PART_TOP_14
8
0
10
0
20
0
3
PART_TOP_14
70
64
0
INSERT
2
SYM_TOP_8
8
0
10
0
20
0
0
INSERT
2
PKG_5
8
0
10
0
20
0
0
TEXT
8
PART_NAME_TOP
10
0
20
0
40
1.778
1
HH8
41
0.75
7
W0$254
0
TEXT
8
PART_TYPE_TOP
10
0
20
-2.54
40
1.778
1
MARK1
41
0.75
7
W0$254
0
TEXT
8
PART_INFO
10
0
20
-5.08
40
1.778
1
000000
41
0.75
7
W0$254
0
TEXT
8
PART_PTS
10
0
20
-7.62
40
1.778
1
1 
41
0.75
7
W0$254
0
ENDBLK
0
BLOCK
2
SYM_TOP_3
8
0
10
0
20
0
3
SYM_TOP_3
70
64
0
TEXT
8
SYM_NAME
10
0
20
0
40
1.778
1
12505WR-12
41
0.75
0
TEXT
8
SYM_ATTRIBUTE_26
10
-10.4250026667
20
3.9583173333
40
0.889
1
Comment
41
0.75
7
W0$127R0
0
TEXT
8
SYM_PART_NAME_26
10
-10.4250026667
20
5.2283173333
40
0.889
1
 
41
0.75
7
W0$127R0
0
INSERT
2
PART_BODY_TOP_931
8
0
10
0
20
0
0
INSERT
2
STK_TOP_4
8
0
10
-6.875
20
1.4999993333
0
TEXT
8
SYM_TERMINAL
10
0
20
-3.048
40
1.778
1
1
0
INSERT
2
STK_TOP_4
8
0
10
-5.625
20
1.4999993333
0
TEXT
8
SYM_TERMINAL
10
0
20
-6.096
40
1.778
1
2
0
INSERT
2
STK_TOP_4
8
0
10
-4.375
20
1.4999993333
0
TEXT
8
SYM_TERMINAL
10
0
20
-9.144
40
1.778
1
3
0
INSERT
2
STK_TOP_4
8
0
10
-3.125
20
1.4999993333
0
TEXT
8
SYM_TERMINAL
10
0
20
-12.192
40
1.778
1
4
0
INSERT
2
STK_TOP_4
8
0
10
-1.875
20
1.4999993333
0
TEXT
8
SYM_TERMINAL
10
0
20
-15.24
40
1.778
1
5
0
INSERT
2
STK_TOP_4
8
0
10
-0.625
20
1.4999993333
0
TEXT
8
SYM_TERMINAL
10
0
20
-18.288
40
1.778
1
6
0
INSERT
2
STK_TOP_4
8
0
10
0.625
20
1.4999993333
0
TEXT
8
SYM_TERMINAL
10
0
20
-21.336
40
1.778
1
7
0
INSERT
2
STK_TOP_4
8
0
10
1.875
20
1.4999993333
0
TEXT
8
SYM_TERMINAL
10
0
20
-24.384
40
1.778
1
8
0
INSERT
2
STK_TOP_4
8
0
10
3.125
20
1.4999993333
0
TEXT
8
SYM_TERMINAL
10
0
20
-27.432
40
1.778
1
9
0
INSERT
2
STK_TOP_4
8
0
10
4.375
20
1.4999993333
0
TEXT
8
SYM_TERMINAL
10
0
20
-30.48
40
1.778
1
10
0
INSERT
2
STK_TOP_4
8
0
10
5.625
20
1.4999993333
0
TEXT
8
SYM_TERMINAL
10
0
20
-33.528
40
1.778
1
11
0
INSERT
2
STK_TOP_4
8
0
10
6.875
20
1.4999993333
0
TEXT
8
SYM_TERMINAL
10
0
20
-36.576
40
1.778
1
12
0
INSERT
2
STK_TOP_5
8
0
10
-9.1750026667
20
-1.500004
0
TEXT
8
SYM_TERMINAL
10
0
20
-39.624
40
1.778
1
13
0
INSERT
2
STK_TOP_5
8
0
10
9.175
20
-1.5
0
TEXT
8
SYM_TERMINAL
10
0
20
-42.672
40
1.778
1
14
0
ENDBLK
0
BLOCK
2
PKG_0
8
0
10
0
20
0
3
PKG_0
70
64
0
TEXT
8
PKG_INFO
10
0
20
0
40
1.778
1
*SYM:= 3
0
TEXT
8
PKG_INFO
10
0
20
-3.048
40
1.778
1
*PKG:= 0 12505WR-12 UND
0
ENDBLK
0
BLOCK
2
SYM_TOP_5
8
0
10
0
20
0
3
SYM_TOP_5
70
64
0
TEXT
8
SYM_NAME
10
0
20
0
40
1.778
1
IS100-L30B-C23/PINSWAP
41
0.75
0
TEXT
8
SYM_PART_TYPE_01
10
1
20
0
40
0.35
1
 
73
2
11
1
21
0
41
0.75
7
W0$01R0
0
TEXT
8
SYM_PART_NAME_01
10
1
20
0
40
0.35
1
 
41
0.75
7
W0$01R0
0
INSERT
2
PART_BODY_TOP_933
8
0
10
0
20
0
0
INSERT
2
STK_TOP_11
8
0
10
-14.5
20
0.25
0
TEXT
8
SYM_TERMINAL
10
0
20
-3.048
40
1.778
1
1
0
INSERT
2
STK_TOP_11
8
0
10
-13.5
20
0.25
0
TEXT
8
SYM_TERMINAL
10
0
20
-6.096
40
1.778
1
2
0
INSERT
2
STK_TOP_11
8
0
10
-12.5
20
0.25
0
TEXT
8
SYM_TERMINAL
10
0
20
-9.144
40
1.778
1
3
0
INSERT
2
STK_TOP_11
8
0
10
-11.5
20
0.25
0
TEXT
8
SYM_TERMINAL
10
0
20
-12.192
40
1.778
1
4
0
INSERT
2
STK_TOP_11
8
0
10
-10.5
20
0.25
0
TEXT
8
SYM_TERMINAL
10
0
20
-15.24
40
1.778
1
5
0
INSERT
2
STK_TOP_11
8
0
10
-9.5
20
0.25
0
TEXT
8
SYM_TERMINAL
10
0
20
-18.288
40
1.778
1
6
0
INSERT
2
STK_TOP_11
8
0
10
-8.5
20
0.25
0
TEXT
8
SYM_TERMINAL
10
0
20
-21.336
40
1.778
1
7
0
INSERT
2
STK_TOP_11
8
0
10
-7.5
20
0.25
0
TEXT
8
SYM_TERMINAL
10
0
20
-24.384
40
1.778
1
8
0
INSERT
2
STK_TOP_11
8
0
10
-6.5
20
0.25
0
TEXT
8
SYM_TERMINAL
10
0
20
-27.432
40
1.778
1
9
0
INSERT
2
STK_TOP_11
8
0
10
-5.5
20
0.25
0
TEXT
8
SYM_TERMINAL
10
0
20
-30.48
40
1.778
1
10
0
INSERT
2
STK_TOP_11
8
0
10
-4.5
20
0.25
0
TEXT
8
SYM_TERMINAL
10
0
20
-33.528
40
1.778
1
11
0
INSERT
2
STK_TOP_11
8
0
10
-3.5
20
0.25
0
TEXT
8
SYM_TERMINAL
10
0
20
-36.576
40
1.778
1
12
0
INSERT
2
STK_TOP_11
8
0
10
-2.5
20
0.25
0
TEXT
8
SYM_TERMINAL
10
0
20
-39.624
40
1.778
1
13
0
INSERT
2
STK_TOP_11
8
0
10
-1.5
20
0.25
0
TEXT
8
SYM_TERMINAL
10
0
20
-42.672
40
1.778
1
14
0
INSERT
2
STK_TOP_11
8
0
10
-0.5
20
0.25
0
TEXT
8
SYM_TERMINAL
10
0
20
-45.72
40
1.778
1
15
0
INSERT
2
STK_TOP_11
8
0
10
0.5
20
0.25
0
TEXT
8
SYM_TERMINAL
10
0
20
-48.768
40
1.778
1
16
0
INSERT
2
STK_TOP_11
8
0
10
1.5
20
0.25
0
TEXT
8
SYM_TERMINAL
10
0
20
-51.816
40
1.778
1
17
0
INSERT
2
STK_TOP_11
8
0
10
2.5
20
0.25
0
TEXT
8
SYM_TERMINAL
10
0
20
-54.864
40
1.778
1
18
0
INSERT
2
STK_TOP_11
8
0
10
3.5
20
0.25
0
TEXT
8
SYM_TERMINAL
10
0
20
-57.912
40
1.778
1
19
0
INSERT
2
STK_TOP_11
8
0
10
4.5
20
0.25
0
TEXT
8
SYM_TERMINAL
10
0
20
-60.96
40
1.778
1
20
0
INSERT
2
STK_TOP_11
8
0
10
5.5
20
0.25
0
TEXT
8
SYM_TERMINAL
10
0
20
-64.008
40
1.778
1
21
0
INSERT
2
STK_TOP_11
8
0
10
6.5
20
0.25
0
TEXT
8
SYM_TERMINAL
10
0
20
-67.056
40
1.778
1
22
0
INSERT
2
STK_TOP_11
8
0
10
7.5
20
0.25
0
TEXT
8
SYM_TERMINAL
10
0
20
-70.104
40
1.778
1
23
0
INSERT
2
STK_TOP_11
8
0
10
8.5
20
0.25
0
TEXT
8
SYM_TERMINAL
10
0
20
-73.152
40
1.778
1
24
0
INSERT
2
STK_TOP_11
8
0
10
9.5
20
0.25
0
TEXT
8
SYM_TERMINAL
10
0
20
-76.2
40
1.778
1
25
0
INSERT
2
STK_TOP_11
8
0
10
10.5
20
0.25
0
TEXT
8
SYM_TERMINAL
10
0
20
-79.248
40
1.778
1
26
0
INSERT
2
STK_TOP_11
8
0
10
11.5
20
0.25
0
TEXT
8
SYM_TERMINAL
10
0
20
-82.296
40
1.778
1
27
0
INSERT
2
STK_TOP_11
8
0
10
12.5
20
0.25
0
TEXT
8
SYM_TERMINAL
10
0
20
-85.344
40
1.778
1
28
0
INSERT
2
STK_TOP_11
8
0
10
13.5
20
0.25
0
TEXT
8
SYM_TERMINAL
10
0
20
-88.392
40
1.778
1
29
0
INSERT
2
STK_TOP_11
8
0
10
14.5
20
0.25
0
TEXT
8
SYM_TERMINAL
10
0
20
-91.44
40
1.778
1
30
0
INSERT
2
STK_TOP_12
8
0
10
15.5
20
0.25
0
TEXT
8
SYM_TERMINAL
10
0
20
-94.488
40
1.778
1
31
0
INSERT
2
STK_TOP_12
8
0
10
-15.5
20
0.25
0
TEXT
8
SYM_TERMINAL
10
0
20
-97.536
40
1.778
1
32
0
INSERT
2
STK_TOP_13
8
0
10
-19.575
20
-2.75
0
TEXT
8
SYM_TERMINAL
10
0
20
-100.584
40
1.778
1
33
0
INSERT
2
STK_TOP_13
8
0
10
19.575
20
-2.75
0
TEXT
8
SYM_TERMINAL
10
0
20
-103.632
40
1.778
1
34
0
ENDBLK
0
BLOCK
2
PKG_2
8
0
10
0
20
0
3
PKG_2
70
64
0
TEXT
8
PKG_INFO
10
0
20
0
40
1.778
1
*SYM:= 5
0
TEXT
8
PKG_INFO
10
0
20
-3.048
40
1.778
1
*PKG:= 0 IS100-L30B-C23/PINSWAP UND
0
TEXT
8
PKG_INFO
10
0
20
-6.096
40
1.778
1
*GATE:=0
0
TEXT
8
PKG_INFO
10
0
20
-9.144
40
1.778
1
*GATEPIN:= 0 9 1 <>
0
TEXT
8
PKG_INFO
10
0
20
-12.192
40
1.778
1
*GATEPIN:= 0 9 2 <>
0
TEXT
8
PKG_INFO
10
0
20
-15.24
40
1.778
1
*GATEPIN:= 0 9 3 <>
0
TEXT
8
PKG_INFO
10
0
20
-18.288
40
1.778
1
*GATEPIN:= 0 9 4 <>
0
TEXT
8
PKG_INFO
10
0
20
-21.336
40
1.778
1
*GATEPIN:= 0 9 5 <>
0
TEXT
8
PKG_INFO
10
0
20
-24.384
40
1.778
1
*GATEPIN:= 0 9 6 <>
0
TEXT
8
PKG_INFO
10
0
20
-27.432
40
1.778
1
*GATEPIN:= 0 9 7 <>
0
TEXT
8
PKG_INFO
10
0
20
-30.48
40
1.778
1
*GATEPIN:= 0 9 8 <>
0
TEXT
8
PKG_INFO
10
0
20
-33.528
40
1.778
1
*GATEPIN:= 0 9 9 <>
0
TEXT
8
PKG_INFO
10
0
20
-36.576
40
1.778
1
*GATEPIN:= 0 9 10 <>
0
TEXT
8
PKG_INFO
10
0
20
-39.624
40
1.778
1
*GATEPIN:= 0 9 11 <>
0
TEXT
8
PKG_INFO
10
0
20
-42.672
40
1.778
1
*GATEPIN:= 0 9 12 <>
0
TEXT
8
PKG_INFO
10
0
20
-45.72
40
1.778
1
*GATEPIN:= 0 9 13 <>
0
TEXT
8
PKG_INFO
10
0
20
-48.768
40
1.778
1
*GATEPIN:= 0 9 14 <>
0
TEXT
8
PKG_INFO
10
0
20
-51.816
40
1.778
1
*GATEPIN:= 0 9 15 <>
0
TEXT
8
PKG_INFO
10
0
20
-54.864
40
1.778
1
*GATEPIN:= 0 9 16 <>
0
TEXT
8
PKG_INFO
10
0
20
-57.912
40
1.778
1
*GATEPIN:= 0 9 17 <>
0
TEXT
8
PKG_INFO
10
0
20
-60.96
40
1.778
1
*GATEPIN:= 0 9 18 <>
0
TEXT
8
PKG_INFO
10
0
20
-64.008
40
1.778
1
*GATEPIN:= 0 9 19 <>
0
TEXT
8
PKG_INFO
10
0
20
-67.056
40
1.778
1
*GATEPIN:= 0 9 20 <>
0
TEXT
8
PKG_INFO
10
0
20
-70.104
40
1.778
1
*GATEPIN:= 0 9 21 <>
0
TEXT
8
PKG_INFO
10
0
20
-73.152
40
1.778
1
*GATEPIN:= 0 9 22 <>
0
TEXT
8
PKG_INFO
10
0
20
-76.2
40
1.778
1
*GATEPIN:= 0 9 23 <>
0
TEXT
8
PKG_INFO
10
0
20
-79.248
40
1.778
1
*GATEPIN:= 0 9 24 <>
0
TEXT
8
PKG_INFO
10
0
20
-82.296
40
1.778
1
*GATEPIN:= 0 9 25 <>
0
TEXT
8
PKG_INFO
10
0
20
-85.344
40
1.778
1
*GATEPIN:= 0 9 26 <>
0
TEXT
8
PKG_INFO
10
0
20
-88.392
40
1.778
1
*GATEPIN:= 0 9 27 <>
0
TEXT
8
PKG_INFO
10
0
20
-91.44
40
1.778
1
*GATEPIN:= 0 9 28 <>
0
TEXT
8
PKG_INFO
10
0
20
-94.488
40
1.778
1
*GATEPIN:= 0 9 29 <>
0
TEXT
8
PKG_INFO
10
0
20
-97.536
40
1.778
1
*GATEPIN:= 0 9 30 <>
0
TEXT
8
PKG_INFO
10
0
20
-100.584
40
1.778
1
*GATEPIN:= 0 9 31 <>
0
TEXT
8
PKG_INFO
10
0
20
-103.632
40
1.778
1
*GATEPIN:= 0 9 32 <>
0
TEXT
8
PKG_INFO
10
0
20
-106.68
40
1.778
1
*GATEPIN:= 0 9 33 <>
0
TEXT
8
PKG_INFO
10
0
20
-109.728
40
1.778
1
*GATEPIN:= 0 9 34 <>
0
ENDBLK
0
BLOCK
2
SYM_TOP_6
8
0
10
0
20
0
3
SYM_TOP_6
70
64
0
TEXT
8
SYM_NAME
10
0
20
0
40
1.778
1
H8D3.3
41
0.75
0
TEXT
8
SYM_PART_NAME_01
10
-1.397
20
-0.3302
40
1.0668
1
 
41
0.75
7
W0$2032R0
0
INSERT
2
PART_BODY_TOP_934
8
0
10
0
20
0
0
INSERT
2
STK_TOP_16
8
0
10
1.229614
20
2.968498
0
TEXT
8
SYM_TERMINAL
10
0
20
-3.048
40
1.778
1
1
0
INSERT
2
STK_TOP_16
8
0
10
2.968498
20
1.229614
0
TEXT
8
SYM_TERMINAL
10
0
20
-6.096
40
1.778
1
2
0
INSERT
2
STK_TOP_16
8
0
10
2.968498
20
-1.229614
0
TEXT
8
SYM_TERMINAL
10
0
20
-9.144
40
1.778
1
3
0
INSERT
2
STK_TOP_16
8
0
10
1.229614
20
-2.968498
0
TEXT
8
SYM_TERMINAL
10
0
20
-12.192
40
1.778
1
4
0
INSERT
2
STK_TOP_16
8
0
10
-1.229614
20
-2.968498
0
TEXT
8
SYM_TERMINAL
10
0
20
-15.24
40
1.778
1
5
0
INSERT
2
STK_TOP_16
8
0
10
-2.968498
20
-1.229614
0
TEXT
8
SYM_TERMINAL
10
0
20
-18.288
40
1.778
1
6
0
INSERT
2
STK_TOP_16
8
0
10
-2.968498
20
1.229614
0
TEXT
8
SYM_TERMINAL
10
0
20
-21.336
40
1.778
1
7
0
INSERT
2
STK_TOP_16
8
0
10
-1.229614
20
2.968498
0
TEXT
8
SYM_TERMINAL
10
0
20
-24.384
40
1.778
1
8
0
INSERT
2
STK_TOP_17
8
0
10
0
20
0
0
TEXT
8
SYM_TERMINAL
10
0
20
-27.432
40
1.778
1
9
0
ENDBLK
0
BLOCK
2
PKG_3
8
0
10
0
20
0
3
PKG_3
70
64
0
TEXT
8
PKG_INFO
10
0
20
0
40
1.778
1
*SYM:= 6
0
TEXT
8
PKG_INFO
10
0
20
-3.048
40
1.778
1
*PKG:= 0 H8D3.3 UND
0
ENDBLK
0
BLOCK
2
SYM_TOP_4
8
0
10
0
20
0
3
SYM_TOP_4
70
64
0
TEXT
8
SYM_NAME
10
0
20
0
40
1.778
1
HD1S040HA1/PS
41
0.75
0
TEXT
8
SYM_PART_NAME_01
10
0
20
0
40
0.21
1
 
41
0.75
7
W0$01R0
0
TEXT
8
SYM_PART_TYPE_01
10
0
20
0
40
0.21
1
 
73
2
11
0
21
0
41
0.75
7
W0$01R0
0
INSERT
2
PART_BODY_TOP_932
8
0
10
0
20
0
0
INSERT
2
STK_TOP_6
8
0
10
9.75
20
1.87
0
TEXT
8
SYM_TERMINAL
10
0
20
-3.048
40
1.778
1
1
0
INSERT
2
STK_TOP_6
8
0
10
9.25
20
1.87
0
TEXT
8
SYM_TERMINAL
10
0
20
-6.096
40
1.778
1
2
0
INSERT
2
STK_TOP_6
8
0
10
8.75
20
1.87
0
TEXT
8
SYM_TERMINAL
10
0
20
-9.144
40
1.778
1
3
0
INSERT
2
STK_TOP_6
8
0
10
8.25
20
1.87
0
TEXT
8
SYM_TERMINAL
10
0
20
-12.192
40
1.778
1
4
0
INSERT
2
STK_TOP_6
8
0
10
7.75
20
1.87
0
TEXT
8
SYM_TERMINAL
10
0
20
-15.24
40
1.778
1
5
0
INSERT
2
STK_TOP_6
8
0
10
7.25
20
1.87
0
TEXT
8
SYM_TERMINAL
10
0
20
-18.288
40
1.778
1
6
0
INSERT
2
STK_TOP_6
8
0
10
6.75
20
1.87
0
TEXT
8
SYM_TERMINAL
10
0
20
-21.336
40
1.778
1
7
0
INSERT
2
STK_TOP_6
8
0
10
6.25
20
1.87
0
TEXT
8
SYM_TERMINAL
10
0
20
-24.384
40
1.778
1
8
0
INSERT
2
STK_TOP_6
8
0
10
5.75
20
1.87
0
TEXT
8
SYM_TERMINAL
10
0
20
-27.432
40
1.778
1
9
0
INSERT
2
STK_TOP_6
8
0
10
5.25
20
1.87
0
TEXT
8
SYM_TERMINAL
10
0
20
-30.48
40
1.778
1
10
0
INSERT
2
STK_TOP_6
8
0
10
4.75
20
1.87
0
TEXT
8
SYM_TERMINAL
10
0
20
-33.528
40
1.778
1
11
0
INSERT
2
STK_TOP_6
8
0
10
4.25
20
1.87
0
TEXT
8
SYM_TERMINAL
10
0
20
-36.576
40
1.778
1
12
0
INSERT
2
STK_TOP_6
8
0
10
3.75
20
1.87
0
TEXT
8
SYM_TERMINAL
10
0
20
-39.624
40
1.778
1
13
0
INSERT
2
STK_TOP_6
8
0
10
3.25
20
1.87
0
TEXT
8
SYM_TERMINAL
10
0
20
-42.672
40
1.778
1
14
0
INSERT
2
STK_TOP_6
8
0
10
2.75
20
1.87
0
TEXT
8
SYM_TERMINAL
10
0
20
-45.72
40
1.778
1
15
0
INSERT
2
STK_TOP_6
8
0
10
2.25
20
1.87
0
TEXT
8
SYM_TERMINAL
10
0
20
-48.768
40
1.778
1
16
0
INSERT
2
STK_TOP_6
8
0
10
1.75
20
1.87
0
TEXT
8
SYM_TERMINAL
10
0
20
-51.816
40
1.778
1
17
0
INSERT
2
STK_TOP_6
8
0
10
1.25
20
1.87
0
TEXT
8
SYM_TERMINAL
10
0
20
-54.864
40
1.778
1
18
0
INSERT
2
STK_TOP_6
8
0
10
0.75
20
1.87
0
TEXT
8
SYM_TERMINAL
10
0
20
-57.912
40
1.778
1
19
0
INSERT
2
STK_TOP_6
8
0
10
0.25
20
1.87
0
TEXT
8
SYM_TERMINAL
10
0
20
-60.96
40
1.778
1
20
0
INSERT
2
STK_TOP_6
8
0
10
-0.25
20
1.87
0
TEXT
8
SYM_TERMINAL
10
0
20
-64.008
40
1.778
1
21
0
INSERT
2
STK_TOP_6
8
0
10
-0.75
20
1.87
0
TEXT
8
SYM_TERMINAL
10
0
20
-67.056
40
1.778
1
22
0
INSERT
2
STK_TOP_6
8
0
10
-1.25
20
1.87
0
TEXT
8
SYM_TERMINAL
10
0
20
-70.104
40
1.778
1
23
0
INSERT
2
STK_TOP_6
8
0
10
-1.75
20
1.87
0
TEXT
8
SYM_TERMINAL
10
0
20
-73.152
40
1.778
1
24
0
INSERT
2
STK_TOP_6
8
0
10
-2.25
20
1.87
0
TEXT
8
SYM_TERMINAL
10
0
20
-76.2
40
1.778
1
25
0
INSERT
2
STK_TOP_6
8
0
10
-2.75
20
1.87
0
TEXT
8
SYM_TERMINAL
10
0
20
-79.248
40
1.778
1
26
0
INSERT
2
STK_TOP_6
8
0
10
-3.25
20
1.87
0
TEXT
8
SYM_TERMINAL
10
0
20
-82.296
40
1.778
1
27
0
INSERT
2
STK_TOP_6
8
0
10
-3.75
20
1.87
0
TEXT
8
SYM_TERMINAL
10
0
20
-85.344
40
1.778
1
28
0
INSERT
2
STK_TOP_6
8
0
10
-4.25
20
1.87
0
TEXT
8
SYM_TERMINAL
10
0
20
-88.392
40
1.778
1
29
0
INSERT
2
STK_TOP_6
8
0
10
-4.75
20
1.87
0
TEXT
8
SYM_TERMINAL
10
0
20
-91.44
40
1.778
1
30
0
INSERT
2
STK_TOP_6
8
0
10
-5.25
20
1.87
0
TEXT
8
SYM_TERMINAL
10
0
20
-94.488
40
1.778
1
31
0
INSERT
2
STK_TOP_6
8
0
10
-5.75
20
1.87
0
TEXT
8
SYM_TERMINAL
10
0
20
-97.536
40
1.778
1
32
0
INSERT
2
STK_TOP_6
8
0
10
-6.25
20
1.87
0
TEXT
8
SYM_TERMINAL
10
0
20
-100.584
40
1.778
1
33
0
INSERT
2
STK_TOP_6
8
0
10
-6.75
20
1.87
0
TEXT
8
SYM_TERMINAL
10
0
20
-103.632
40
1.778
1
34
0
INSERT
2
STK_TOP_6
8
0
10
-7.25
20
1.87
0
TEXT
8
SYM_TERMINAL
10
0
20
-106.68
40
1.778
1
35
0
INSERT
2
STK_TOP_6
8
0
10
-7.75
20
1.87
0
TEXT
8
SYM_TERMINAL
10
0
20
-109.728
40
1.778
1
36
0
INSERT
2
STK_TOP_6
8
0
10
-8.25
20
1.87
0
TEXT
8
SYM_TERMINAL
10
0
20
-112.776
40
1.778
1
37
0
INSERT
2
STK_TOP_6
8
0
10
-8.75
20
1.87
0
TEXT
8
SYM_TERMINAL
10
0
20
-115.824
40
1.778
1
38
0
INSERT
2
STK_TOP_6
8
0
10
-9.25
20
1.87
0
TEXT
8
SYM_TERMINAL
10
0
20
-118.872
40
1.778
1
39
0
INSERT
2
STK_TOP_6
8
0
10
-9.75
20
1.87
0
TEXT
8
SYM_TERMINAL
10
0
20
-121.92
40
1.778
1
40
0
INSERT
2
STK_TOP_7
8
0
10
-10.65
20
1.87
0
TEXT
8
SYM_TERMINAL
10
0
20
-124.968
40
1.778
1
41
0
INSERT
2
STK_TOP_7
8
0
10
10.65
20
1.87
0
TEXT
8
SYM_TERMINAL
10
0
20
-128.016
40
1.778
1
42
0
INSERT
2
STK_TOP_8
8
0
10
-12.68
20
-0.65
0
TEXT
8
SYM_TERMINAL
10
0
20
-131.064
40
1.778
1
43
0
INSERT
2
STK_TOP_8
8
0
10
12.68
20
-0.65
0
TEXT
8
SYM_TERMINAL
10
0
20
-134.112
40
1.778
1
44
0
ENDBLK
0
BLOCK
2
PKG_1
8
0
10
0
20
0
3
PKG_1
70
64
0
TEXT
8
PKG_INFO
10
0
20
0
40
1.778
1
*SYM:= 4
0
TEXT
8
PKG_INFO
10
0
20
-3.048
40
1.778
1
*PKG:= 0 HD1S040HA1/PS UND
0
TEXT
8
PKG_INFO
10
0
20
-6.096
40
1.778
1
*GATE:=0
0
TEXT
8
PKG_INFO
10
0
20
-9.144
40
1.778
1
*GATEPIN:= 0 9 40 <>
0
TEXT
8
PKG_INFO
10
0
20
-12.192
40
1.778
1
*GATEPIN:= 0 9 39 <>
0
TEXT
8
PKG_INFO
10
0
20
-15.24
40
1.778
1
*GATEPIN:= 0 9 38 <>
0
TEXT
8
PKG_INFO
10
0
20
-18.288
40
1.778
1
*GATEPIN:= 0 9 37 <>
0
TEXT
8
PKG_INFO
10
0
20
-21.336
40
1.778
1
*GATEPIN:= 0 9 36 <>
0
TEXT
8
PKG_INFO
10
0
20
-24.384
40
1.778
1
*GATEPIN:= 0 9 35 <>
0
TEXT
8
PKG_INFO
10
0
20
-27.432
40
1.778
1
*GATEPIN:= 0 9 34 <>
0
TEXT
8
PKG_INFO
10
0
20
-30.48
40
1.778
1
*GATEPIN:= 0 9 33 <>
0
TEXT
8
PKG_INFO
10
0
20
-33.528
40
1.778
1
*GATEPIN:= 0 9 32 <>
0
TEXT
8
PKG_INFO
10
0
20
-36.576
40
1.778
1
*GATEPIN:= 0 9 31 <>
0
TEXT
8
PKG_INFO
10
0
20
-39.624
40
1.778
1
*GATEPIN:= 0 9 30 <>
0
TEXT
8
PKG_INFO
10
0
20
-42.672
40
1.778
1
*GATEPIN:= 0 9 29 <>
0
TEXT
8
PKG_INFO
10
0
20
-45.72
40
1.778
1
*GATEPIN:= 0 9 28 <>
0
TEXT
8
PKG_INFO
10
0
20
-48.768
40
1.778
1
*GATEPIN:= 0 9 27 <>
0
TEXT
8
PKG_INFO
10
0
20
-51.816
40
1.778
1
*GATEPIN:= 0 9 26 <>
0
TEXT
8
PKG_INFO
10
0
20
-54.864
40
1.778
1
*GATEPIN:= 0 9 25 <>
0
TEXT
8
PKG_INFO
10
0
20
-57.912
40
1.778
1
*GATEPIN:= 0 9 24 <>
0
TEXT
8
PKG_INFO
10
0
20
-60.96
40
1.778
1
*GATEPIN:= 0 9 23 <>
0
TEXT
8
PKG_INFO
10
0
20
-64.008
40
1.778
1
*GATEPIN:= 0 9 22 <>
0
TEXT
8
PKG_INFO
10
0
20
-67.056
40
1.778
1
*GATEPIN:= 0 9 21 <>
0
TEXT
8
PKG_INFO
10
0
20
-70.104
40
1.778
1
*GATEPIN:= 0 9 20 <>
0
TEXT
8
PKG_INFO
10
0
20
-73.152
40
1.778
1
*GATEPIN:= 0 9 19 <>
0
TEXT
8
PKG_INFO
10
0
20
-76.2
40
1.778
1
*GATEPIN:= 0 9 18 <>
0
TEXT
8
PKG_INFO
10
0
20
-79.248
40
1.778
1
*GATEPIN:= 0 9 17 <>
0
TEXT
8
PKG_INFO
10
0
20
-82.296
40
1.778
1
*GATEPIN:= 0 9 16 <>
0
TEXT
8
PKG_INFO
10
0
20
-85.344
40
1.778
1
*GATEPIN:= 0 9 15 <>
0
TEXT
8
PKG_INFO
10
0
20
-88.392
40
1.778
1
*GATEPIN:= 0 9 14 <>
0
TEXT
8
PKG_INFO
10
0
20
-91.44
40
1.778
1
*GATEPIN:= 0 9 13 <>
0
TEXT
8
PKG_INFO
10
0
20
-94.488
40
1.778
1
*GATEPIN:= 0 9 12 <>
0
TEXT
8
PKG_INFO
10
0
20
-97.536
40
1.778
1
*GATEPIN:= 0 9 11 <>
0
TEXT
8
PKG_INFO
10
0
20
-100.584
40
1.778
1
*GATEPIN:= 0 9 10 <>
0
TEXT
8
PKG_INFO
10
0
20
-103.632
40
1.778
1
*GATEPIN:= 0 9 9 <>
0
TEXT
8
PKG_INFO
10
0
20
-106.68
40
1.778
1
*GATEPIN:= 0 9 8 <>
0
TEXT
8
PKG_INFO
10
0
20
-109.728
40
1.778
1
*GATEPIN:= 0 9 7 <>
0
TEXT
8
PKG_INFO
10
0
20
-112.776
40
1.778
1
*GATEPIN:= 0 9 6 <>
0
TEXT
8
PKG_INFO
10
0
20
-115.824
40
1.778
1
*GATEPIN:= 0 9 5 <>
0
TEXT
8
PKG_INFO
10
0
20
-118.872
40
1.778
1
*GATEPIN:= 0 9 4 <>
0
TEXT
8
PKG_INFO
10
0
20
-121.92
40
1.778
1
*GATEPIN:= 0 9 3 <>
0
TEXT
8
PKG_INFO
10
0
20
-124.968
40
1.778
1
*GATEPIN:= 0 9 2 <>
0
TEXT
8
PKG_INFO
10
0
20
-128.016
40
1.778
1
*GATEPIN:= 0 9 1 <>
0
TEXT
8
PKG_INFO
10
0
20
-131.064
40
1.778
1
*GATEPIN:= 0 9 41 <>
0
TEXT
8
PKG_INFO
10
0
20
-134.112
40
1.778
1
*GATEPIN:= 0 9 42 <>
0
TEXT
8
PKG_INFO
10
0
20
-137.16
40
1.778
1
*GATEPIN:= 0 9 43 <>
0
TEXT
8
PKG_INFO
10
0
20
-140.208
40
1.778
1
*GATEPIN:= 0 9 44 <>
0
ENDBLK
0
BLOCK
2
SYM_TOP_7
8
0
10
0
20
0
3
SYM_TOP_7
70
64
0
TEXT
8
SYM_NAME
10
0
20
0
40
1.778
1
H4_NP
41
0.75
0
INSERT
2
PART_BODY_TOP_947
8
0
10
0
20
0
0
INSERT
2
STK_TOP_19
8
0
10
0
20
0
0
TEXT
8
SYM_TERMINAL
10
0
20
-3.048
40
1.778
1
1
0
ENDBLK
0
BLOCK
2
PKG_4
8
0
10
0
20
0
3
PKG_4
70
64
0
TEXT
8
PKG_INFO
10
0
20
0
40
1.778
1
*SYM:= 7
0
TEXT
8
PKG_INFO
10
0
20
-3.048
40
1.778
1
*PKG:= 0 H4_NP UND
0
ENDBLK
0
BLOCK
2
SYM_TOP_8
8
0
10
0
20
0
3
SYM_TOP_8
70
64
0
TEXT
8
SYM_NAME
10
0
20
0
40
1.778
1
MARK1
41
0.75
0
INSERT
2
PART_BODY_TOP_948
8
0
10
0
20
0
0
INSERT
2
STK_TOP_20
8
0
10
0
20
0
0
TEXT
8
SYM_TERMINAL
10
0
20
-3.048
40
1.778
1
1
0
ENDBLK
0
BLOCK
2
PKG_5
8
0
10
0
20
0
3
PKG_5
70
64
0
TEXT
8
PKG_INFO
10
0
20
0
40
1.778
1
*SYM:= 8
0
TEXT
8
PKG_INFO
10
0
20
-3.048
40
1.778
1
*PKG:= 0 MARK1 UND
0
ENDBLK
0
BLOCK
2
PART_BODY_TOP_931
8
0
10
0
20
0
3
PART_BODY_TOP_931
70
64
0
POLYLINE
8
PART_TOP_2DLINE_01
66
1
40
0.125
41
0.125
39
11.5
0
VERTEX
8
PART_TOP_2DLINE_01
10
-6.5
20
2.6
0
VERTEX
8
PART_TOP_2DLINE_01
10
-7.5
20
2.6
0
VERTEX
8
PART_TOP_2DLINE_01
10
-7.5
20
1.6
0
SEQEND
0
INSERT
2
SMOOTH_0$125
8
PART_TOP_2DLINE_01
10
-6.5
20
2.6
0
INSERT
2
SMOOTH_0$125
8
PART_TOP_2DLINE_01
10
-7.5
20
2.6
0
INSERT
2
SMOOTH_0$125
8
PART_TOP_2DLINE_01
10
-7.5
20
1.6
0
POLYLINE
8
PART_TOP_2DLINE_01
66
1
40
0.125
41
0.125
39
11.5
0
VERTEX
8
PART_TOP_2DLINE_01
10
-7.5
20
0.8
0
VERTEX
8
PART_TOP_2DLINE_01
10
-9.875
20
0.8
0
VERTEX
8
PART_TOP_2DLINE_01
10
-9.875
20
0.2
0
SEQEND
0
INSERT
2
SMOOTH_0$125
8
PART_TOP_2DLINE_01
10
-7.5
20
0.8
0
INSERT
2
SMOOTH_0$125
8
PART_TOP_2DLINE_01
10
-9.875
20
0.8
0
INSERT
2
SMOOTH_0$125
8
PART_TOP_2DLINE_01
10
-9.875
20
0.2
0
POLYLINE
8
PART_TOP_2DLINE_01
66
1
40
0.125
41
0.125
39
11.5
0
VERTEX
8
PART_TOP_2DLINE_01
10
-9.875
20
-3.2
0
VERTEX
8
PART_TOP_2DLINE_01
10
-9.875
20
-3.4
0
VERTEX
8
PART_TOP_2DLINE_01
10
9.875
20
-3.4
0
VERTEX
8
PART_TOP_2DLINE_01
10
9.875
20
-3.2
0
SEQEND
0
INSERT
2
SMOOTH_0$125
8
PART_TOP_2DLINE_01
10
-9.875
20
-3.2
0
INSERT
2
SMOOTH_0$125
8
PART_TOP_2DLINE_01
10
-9.875
20
-3.4
0
INSERT
2
SMOOTH_0$125
8
PART_TOP_2DLINE_01
10
9.875
20
-3.4
0
INSERT
2
SMOOTH_0$125
8
PART_TOP_2DLINE_01
10
9.875
20
-3.2
0
POLYLINE
8
PART_TOP_2DLINE_01
66
1
40
0.125
41
0.125
39
11.5
0
VERTEX
8
PART_TOP_2DLINE_01
10
7.5
20
0.8
0
VERTEX
8
PART_TOP_2DLINE_01
10
9.875
20
0.8
0
VERTEX
8
PART_TOP_2DLINE_01
10
9.875
20
0.2
0
SEQEND
0
INSERT
2
SMOOTH_0$125
8
PART_TOP_2DLINE_01
10
7.5
20
0.8
0
INSERT
2
SMOOTH_0$125
8
PART_TOP_2DLINE_01
10
9.875
20
0.8
0
INSERT
2
SMOOTH_0$125
8
PART_TOP_2DLINE_01
10
9.875
20
0.2
0
POLYLINE
8
PART_TOP_2DLINE_01
66
1
40
0.125
41
0.125
39
11.5
0
VERTEX
8
PART_TOP_2DLINE_01
10
-0.2
20
0
0
VERTEX
8
PART_TOP_2DLINE_01
10
0.2
20
0
0
SEQEND
0
INSERT
2
SMOOTH_0$125
8
PART_TOP_2DLINE_01
10
-0.2
20
0
0
INSERT
2
SMOOTH_0$125
8
PART_TOP_2DLINE_01
10
0.2
20
0
0
POLYLINE
8
PART_TOP_2DLINE_01
66
1
40
0.125
41
0.125
39
11.5
0
VERTEX
8
PART_TOP_2DLINE_01
10
0
20
0.2
0
VERTEX
8
PART_TOP_2DLINE_01
10
0
20
-0.2
0
SEQEND
0
INSERT
2
SMOOTH_0$125
8
PART_TOP_2DLINE_01
10
0
20
0.2
0
INSERT
2
SMOOTH_0$125
8
PART_TOP_2DLINE_01
10
0
20
-0.2
0
POLYLINE
8
PART_TOP_2DLINE_01
66
1
40
0.125
41
0.125
39
11.5
0
VERTEX
8
PART_TOP_2DLINE_01
10
-1.875
20
2.65
0
VERTEX
8
PART_TOP_2DLINE_01
10
-1.875
20
2.9
0
SEQEND
0
INSERT
2
SMOOTH_0$125
8
PART_TOP_2DLINE_01
10
-1.875
20
2.65
0
INSERT
2
SMOOTH_0$125
8
PART_TOP_2DLINE_01
10
-1.875
20
2.9
0
POLYLINE
8
PART_TOP_2DLINE_01
66
1
40
0.125
41
0.125
39
11.5
0
VERTEX
8
PART_TOP_2DLINE_01
10
4.375
20
2.65
0
VERTEX
8
PART_TOP_2DLINE_01
10
4.375
20
3.1
0
SEQEND
0
INSERT
2
SMOOTH_0$125
8
PART_TOP_2DLINE_01
10
4.375
20
2.65
0
INSERT
2
SMOOTH_0$125
8
PART_TOP_2DLINE_01
10
4.375
20
3.1
0
ENDBLK
0
BLOCK
2
STK_TOP_4
8
0
10
0
20
0
3
STK_TOP_4
70
64
0
INSERT
2
DRIL_HOLE_0
8
DRIL_NPLTE_THRU_01
10
0
20
0
0
INSERT
2
DRIL_HOLE_0
8
DRIL_NPLTE_THRU_02
10
0
20
0
0
INSERT
2
PAD_0
8
PADS_INNER
10
0
20
0
0
INSERT
2
PAD_0
8
PADS_BOT
10
0
20
0
0
INSERT
2
PAD_1
8
PADS_TOP
10
0
20
0
50
90
0
ENDBLK
0
BLOCK
2
STK_TOP_5
8
0
10
0
20
0
3
STK_TOP_5
70
64
0
INSERT
2
DRIL_HOLE_0
8
DRIL_NPLTE_THRU_01
10
0
20
0
0
INSERT
2
DRIL_HOLE_0
8
DRIL_NPLTE_THRU_02
10
0
20
0
0
INSERT
2
PAD_0
8
PADS_INNER
10
0
20
0
0
INSERT
2
PAD_0
8
PADS_BOT
10
0
20
0
0
INSERT
2
PAD_2
8
PADS_TOP
10
0
20
0
50
90
0
ENDBLK
0
BLOCK
2
PART_BODY_TOP_933
8
0
10
0
20
0
3
PART_BODY_TOP_933
70
64
0
POLYLINE
8
PART_TOP_2DLINE_01
66
1
40
0.125
41
0.125
0
VERTEX
8
PART_TOP_2DLINE_01
10
0
20
-3.5
0
VERTEX
8
PART_TOP_2DLINE_01
10
0
20
-4
0
SEQEND
0
INSERT
2
SMOOTH_0$125
8
PART_TOP_2DLINE_01
10
0
20
-3.5
0
INSERT
2
SMOOTH_0$125
8
PART_TOP_2DLINE_01
10
0
20
-4
0
POLYLINE
8
PART_TOP_2DLINE_01
66
1
40
0.125
41
0.125
0
VERTEX
8
PART_TOP_2DLINE_01
10
-16.1
20
-0.45
0
VERTEX
8
PART_TOP_2DLINE_01
10
-18.675
20
-0.45
0
VERTEX
8
PART_TOP_2DLINE_01
10
-18.675
20
-1.65
0
SEQEND
0
INSERT
2
SMOOTH_0$125
8
PART_TOP_2DLINE_01
10
-16.1
20
-0.45
0
INSERT
2
SMOOTH_0$125
8
PART_TOP_2DLINE_01
10
-18.675
20
-0.45
0
INSERT
2
SMOOTH_0$125
8
PART_TOP_2DLINE_01
10
-18.675
20
-1.65
0
POLYLINE
8
PART_TOP_2DLINE_01
66
1
40
0.125
41
0.125
0
VERTEX
8
PART_TOP_2DLINE_01
10
-18.675
20
-3.75
0
VERTEX
8
PART_TOP_2DLINE_01
10
18.675
20
-3.75
0
SEQEND
0
INSERT
2
SMOOTH_0$125
8
PART_TOP_2DLINE_01
10
-18.675
20
-3.75
0
INSERT
2
SMOOTH_0$125
8
PART_TOP_2DLINE_01
10
18.675
20
-3.75
0
POLYLINE
8
PART_TOP_2DLINE_01
66
1
40
0.125
41
0.125
0
VERTEX
8
PART_TOP_2DLINE_01
10
18.675
20
-1.65
0
VERTEX
8
PART_TOP_2DLINE_01
10
18.675
20
-0.45
0
VERTEX
8
PART_TOP_2DLINE_01
10
16.1
20
-0.45
0
SEQEND
0
INSERT
2
SMOOTH_0$125
8
PART_TOP_2DLINE_01
10
18.675
20
-1.65
0
INSERT
2
SMOOTH_0$125
8
PART_TOP_2DLINE_01
10
18.675
20
-0.45
0
INSERT
2
SMOOTH_0$125
8
PART_TOP_2DLINE_01
10
16.1
20
-0.45
0
POLYLINE
8
PART_TOP_2DLINE_01
66
1
40
0.125
41
0.125
70
1
0
VERTEX
8
PART_TOP_2DLINE_01
10
14.660078
20
1.625
42
1
0
VERTEX
8
PART_TOP_2DLINE_01
10
14.339922
20
1.625
42
1
0
SEQEND
0
POLYLINE
8
PART_TOP_2DLINE_01
66
1
40
0.125
41
0.125
0
VERTEX
8
PART_TOP_2DLINE_01
10
10.5
20
1.475
0
VERTEX
8
PART_TOP_2DLINE_01
10
10.5
20
1.675
0
SEQEND
0
INSERT
2
SMOOTH_0$125
8
PART_TOP_2DLINE_01
10
10.5
20
1.475
0
INSERT
2
SMOOTH_0$125
8
PART_TOP_2DLINE_01
10
10.5
20
1.675
0
POLYLINE
8
PART_TOP_2DLINE_01
66
1
40
0.125
41
0.125
0
VERTEX
8
PART_TOP_2DLINE_01
10
5.5
20
1.475
0
VERTEX
8
PART_TOP_2DLINE_01
10
5.5
20
1.875
0
SEQEND
0
INSERT
2
SMOOTH_0$125
8
PART_TOP_2DLINE_01
10
5.5
20
1.475
0
INSERT
2
SMOOTH_0$125
8
PART_TOP_2DLINE_01
10
5.5
20
1.875
0
POLYLINE
8
PART_TOP_2DLINE_01
66
1
40
0.125
41
0.125
0
VERTEX
8
PART_TOP_2DLINE_01
10
0.5
20
1.475
0
VERTEX
8
PART_TOP_2DLINE_01
10
0.5
20
1.675
0
SEQEND
0
INSERT
2
SMOOTH_0$125
8
PART_TOP_2DLINE_01
10
0.5
20
1.475
0
INSERT
2
SMOOTH_0$125
8
PART_TOP_2DLINE_01
10
0.5
20
1.675
0
POLYLINE
8
PART_TOP_2DLINE_01
66
1
40
0.125
41
0.125
0
VERTEX
8
PART_TOP_2DLINE_01
10
-4.5
20
1.475
0
VERTEX
8
PART_TOP_2DLINE_01
10
-4.5
20
1.875
0
SEQEND
0
INSERT
2
SMOOTH_0$125
8
PART_TOP_2DLINE_01
10
-4.5
20
1.475
0
INSERT
2
SMOOTH_0$125
8
PART_TOP_2DLINE_01
10
-4.5
20
1.875
0
POLYLINE
8
PART_TOP_2DLINE_01
66
1
40
0.125
41
0.125
0
VERTEX
8
PART_TOP_2DLINE_01
10
-9.5
20
1.475
0
VERTEX
8
PART_TOP_2DLINE_01
10
-9.5
20
1.675
0
SEQEND
0
INSERT
2
SMOOTH_0$125
8
PART_TOP_2DLINE_01
10
-9.5
20
1.475
0
INSERT
2
SMOOTH_0$125
8
PART_TOP_2DLINE_01
10
-9.5
20
1.675
0
POLYLINE
8
PART_TOP_2DLINE_01
66
1
40
0.125
41
0.125
0
VERTEX
8
PART_TOP_2DLINE_01
10
-14.5
20
1.475
0
VERTEX
8
PART_TOP_2DLINE_01
10
-14.5
20
1.875
0
SEQEND
0
INSERT
2
SMOOTH_0$125
8
PART_TOP_2DLINE_01
10
-14.5
20
1.475
0
INSERT
2
SMOOTH_0$125
8
PART_TOP_2DLINE_01
10
-14.5
20
1.875
0
ENDBLK
0
BLOCK
2
STK_TOP_11
8
0
10
0
20
0
3
STK_TOP_11
70
64
0
INSERT
2
DRIL_HOLE_0
8
DRIL_PLTE_THRU_01
10
0
20
0
0
INSERT
2
DRIL_HOLE_0
8
DRIL_PLTE_THRU_02
10
0
20
0
0
INSERT
2
PAD_0
8
PADS_INNER
10
0
20
0
0
INSERT
2
PAD_0
8
PADS_BOT
10
0
20
0
0
INSERT
2
PAD_3
8
PADS_TOP
10
0
20
0
50
90
0
ENDBLK
0
BLOCK
2
STK_TOP_12
8
0
10
0
20
0
3
STK_TOP_12
70
64
0
INSERT
2
DRIL_HOLE_0
8
DRIL_PLTE_THRU_01
10
0
20
0
0
INSERT
2
DRIL_HOLE_0
8
DRIL_PLTE_THRU_02
10
0
20
0
0
INSERT
2
PAD_0
8
PADS_INNER
10
0
20
0
0
INSERT
2
PAD_0
8
PADS_BOT
10
0
20
0
0
INSERT
2
PAD_4
8
PADS_TOP
10
0
20
0
50
90
0
ENDBLK
0
BLOCK
2
STK_TOP_13
8
0
10
0
20
0
3
STK_TOP_13
70
64
0
INSERT
2
DRIL_HOLE_0
8
DRIL_PLTE_THRU_01
10
0
20
0
0
INSERT
2
DRIL_HOLE_0
8
DRIL_PLTE_THRU_02
10
0
20
0
0
INSERT
2
PAD_0
8
PADS_INNER
10
0
20
0
0
INSERT
2
PAD_0
8
PADS_BOT
10
0
20
0
0
INSERT
2
PAD_5
8
PADS_TOP
10
0
20
0
0
ENDBLK
0
BLOCK
2
PART_BODY_TOP_934
8
0
10
0
20
0
3
PART_BODY_TOP_934
70
64
0
POLYLINE
8
PART_TOP_COPPER_01
6
TRMIDX_0
66
1
40
1.524
41
1.524
0
VERTEX
8
PART_TOP_COPPER_01
10
1.2
20
3
42
-5.2051567655
0
VERTEX
8
PART_TOP_COPPER_01
10
-1.2
20
3
0
SEQEND
0
INSERT
2
SMOOTH_1$524
8
PART_TOP_COPPER_01
10
1.2
20
3
0
INSERT
2
SMOOTH_1$524
8
PART_TOP_COPPER_01
10
-1.2
20
3
0
POLYLINE
8
PART_TOP_COPPER_01
6
TRMIDX_0
66
1
40
1.524
41
1.524
0
VERTEX
8
PART_TOP_COPPER_01
10
1.2
20
3
42
0.167791193
0
VERTEX
8
PART_TOP_COPPER_01
10
-1.2
20
3
0
SEQEND
0
INSERT
2
SMOOTH_1$524
8
PART_TOP_COPPER_01
10
1.2
20
3
0
INSERT
2
SMOOTH_1$524
8
PART_TOP_COPPER_01
10
-1.2
20
3
0
POLYLINE
8
PART_TOP_CUTOUT_03
66
1
40
0.127
41
0.127
70
1
0
VERTEX
8
PART_TOP_CUTOUT_03
10
-2.6161673333
20
0
42
1
0
VERTEX
8
PART_TOP_CUTOUT_03
10
2.6161673333
20
0
42
1
0
SEQEND
0
POLYLINE
8
PART_TOP_CUTOUT_04
66
1
40
0.127
41
0.127
70
1
0
VERTEX
8
PART_TOP_CUTOUT_04
10
-2.6161673333
20
0
42
1
0
VERTEX
8
PART_TOP_CUTOUT_04
10
2.6161673333
20
0
42
1
0
SEQEND
0
POLYLINE
8
KEEPOUT_00
6
KEEPOUT_00011110$0
66
1
70
1
0
VERTEX
8
KEEPOUT_00
10
-2.4186766667
20
0
42
1
0
VERTEX
8
KEEPOUT_00
10
2.4186766667
20
0
42
1
0
SEQEND
0
ENDBLK
0
BLOCK
2
STK_TOP_16
8
0
10
0
20
0
3
STK_TOP_16
70
64
0
INSERT
2
DRIL_HOLE_0$7
8
DRIL_PLTE_THRU_01
10
0
20
0
0
INSERT
2
DRIL_HOLE_0$7
8
DRIL_PLTE_THRU_02
10
0
20
0
0
INSERT
2
PAD_6
8
PADS_INNER
10
0
20
0
0
INSERT
2
PAD_6
8
PADS_BOT
10
0
20
0
0
INSERT
2
PAD_6
8
PADS_TOP
10
0
20
0
0
ENDBLK
0
BLOCK
2
STK_TOP_17
8
0
10
0
20
0
3
STK_TOP_17
70
64
0
INSERT
2
DRIL_HOLE_3$3
8
DRIL_NPLTE_THRU_01
10
0
20
0
0
INSERT
2
DRIL_HOLE_3$3
8
DRIL_NPLTE_THRU_02
10
0
20
0
0
INSERT
2
PAD_0
8
PADS_INNER
10
0
20
0
0
INSERT
2
PAD_0
8
PADS_BOT
10
0
20
0
0
INSERT
2
PAD_7
8
PADS_XR_21
10
0
20
0
0
INSERT
2
PAD_7
8
PADS_XR_28
10
0
20
0
0
INSERT
2
PAD_0
8
PADS_TOP
10
0
20
0
0
ENDBLK
0
BLOCK
2
PART_BODY_TOP_932
8
0
10
0
20
0
3
PART_BODY_TOP_932
70
64
0
POLYLINE
8
PART_TOP_2DLINE_01
66
1
40
0.125
41
0.125
0
VERTEX
8
PART_TOP_2DLINE_01
10
-0.5
20
0
0
VERTEX
8
PART_TOP_2DLINE_01
10
0.5
20
0
0
SEQEND
0
INSERT
2
SMOOTH_0$125
8
PART_TOP_2DLINE_01
10
-0.5
20
0
0
INSERT
2
SMOOTH_0$125
8
PART_TOP_2DLINE_01
10
0.5
20
0
0
POLYLINE
8
PART_TOP_2DLINE_01
66
1
40
0.125
41
0.125
0
VERTEX
8
PART_TOP_2DLINE_01
10
0
20
0.5
0
VERTEX
8
PART_TOP_2DLINE_01
10
0
20
-0.5
0
SEQEND
0
INSERT
2
SMOOTH_0$125
8
PART_TOP_2DLINE_01
10
0
20
0.5
0
INSERT
2
SMOOTH_0$125
8
PART_TOP_2DLINE_01
10
0
20
-0.5
0
POLYLINE
8
PART_TOP_2DLINE_01
66
1
40
0.125
41
0.125
70
1
0
VERTEX
8
PART_TOP_2DLINE_01
10
-14.1
20
3.3
0
VERTEX
8
PART_TOP_2DLINE_01
10
14.1
20
3.3
0
VERTEX
8
PART_TOP_2DLINE_01
10
14.1
20
-3.4
0
VERTEX
8
PART_TOP_2DLINE_01
10
-14.1
20
-3.4
0
SEQEND
0
INSERT
2
SMOOTH_0$125
8
PART_TOP_2DLINE_01
10
-14.1
20
3.3
0
INSERT
2
SMOOTH_0$125
8
PART_TOP_2DLINE_01
10
14.1
20
3.3
0
INSERT
2
SMOOTH_0$125
8
PART_TOP_2DLINE_01
10
14.1
20
-3.4
0
INSERT
2
SMOOTH_0$125
8
PART_TOP_2DLINE_01
10
-14.1
20
-3.4
0
POLYLINE
8
PART_TOP_2DLINE_01
66
1
40
0.125
41
0.125
0
VERTEX
8
PART_TOP_2DLINE_01
10
-11.15
20
2.32
0
VERTEX
8
PART_TOP_2DLINE_01
10
-12.15
20
2.32
0
VERTEX
8
PART_TOP_2DLINE_01
10
-12.15
20
0.55
0
VERTEX
8
PART_TOP_2DLINE_01
10
-10.3
20
0.55
0
VERTEX
8
PART_TOP_2DLINE_01
10
-10.3
20
0
0
VERTEX
8
PART_TOP_2DLINE_01
10
10.35
20
0
0
VERTEX
8
PART_TOP_2DLINE_01
10
10.35
20
0.55
0
VERTEX
8
PART_TOP_2DLINE_01
10
12.15
20
0.55
0
VERTEX
8
PART_TOP_2DLINE_01
10
12.15
20
2.32
0
VERTEX
8
PART_TOP_2DLINE_01
10
11.13
20
2.32
0
SEQEND
0
INSERT
2
SMOOTH_0$125
8
PART_TOP_2DLINE_01
10
-11.15
20
2.32
0
INSERT
2
SMOOTH_0$125
8
PART_TOP_2DLINE_01
10
-12.15
20
2.32
0
INSERT
2
SMOOTH_0$125
8
PART_TOP_2DLINE_01
10
-12.15
20
0.55
0
INSERT
2
SMOOTH_0$125
8
PART_TOP_2DLINE_01
10
-10.3
20
0.55
0
INSERT
2
SMOOTH_0$125
8
PART_TOP_2DLINE_01
10
-10.3
20
0
0
INSERT
2
SMOOTH_0$125
8
PART_TOP_2DLINE_01
10
10.35
20
0
0
INSERT
2
SMOOTH_0$125
8
PART_TOP_2DLINE_01
10
10.35
20
0.55
0
INSERT
2
SMOOTH_0$125
8
PART_TOP_2DLINE_01
10
12.15
20
0.55
0
INSERT
2
SMOOTH_0$125
8
PART_TOP_2DLINE_01
10
12.15
20
2.32
0
INSERT
2
SMOOTH_0$125
8
PART_TOP_2DLINE_01
10
11.13
20
2.32
0
POLYLINE
8
PART_TOP_2DLINE_01
66
1
40
0.125
41
0.125
0
VERTEX
8
PART_TOP_2DLINE_01
10
-12.15
20
0.2
0
VERTEX
8
PART_TOP_2DLINE_01
10
-12.15
20
0.55
0
SEQEND
0
INSERT
2
SMOOTH_0$125
8
PART_TOP_2DLINE_01
10
-12.15
20
0.2
0
INSERT
2
SMOOTH_0$125
8
PART_TOP_2DLINE_01
10
-12.15
20
0.55
0
POLYLINE
8
PART_TOP_2DLINE_01
66
1
40
0.125
41
0.125
0
VERTEX
8
PART_TOP_2DLINE_01
10
-13.55
20
-2.1
0
VERTEX
8
PART_TOP_2DLINE_01
10
-13.55
20
-3.4
0
SEQEND
0
INSERT
2
SMOOTH_0$125
8
PART_TOP_2DLINE_01
10
-13.55
20
-2.1
0
INSERT
2
SMOOTH_0$125
8
PART_TOP_2DLINE_01
10
-13.55
20
-3.4
0
POLYLINE
8
PART_TOP_2DLINE_01
66
1
40
0.125
41
0.125
0
VERTEX
8
PART_TOP_2DLINE_01
10
12.15
20
0.55
0
VERTEX
8
PART_TOP_2DLINE_01
10
12.15
20
0.2
0
SEQEND
0
INSERT
2
SMOOTH_0$125
8
PART_TOP_2DLINE_01
10
12.15
20
0.55
0
INSERT
2
SMOOTH_0$125
8
PART_TOP_2DLINE_01
10
12.15
20
0.2
0
POLYLINE
8
PART_TOP_2DLINE_01
66
1
40
0.125
41
0.125
0
VERTEX
8
PART_TOP_2DLINE_01
10
13.55
20
-2.1
0
VERTEX
8
PART_TOP_2DLINE_01
10
13.55
20
-3.4
0
SEQEND
0
INSERT
2
SMOOTH_0$125
8
PART_TOP_2DLINE_01
10
13.55
20
-2.1
0
INSERT
2
SMOOTH_0$125
8
PART_TOP_2DLINE_01
10
13.55
20
-3.4
0
POLYLINE
8
PART_TOP_2DLINE_01
66
1
40
0.125
41
0.125
70
1
0
VERTEX
8
PART_TOP_2DLINE_01
10
9.6381966667
20
2.6
42
1
0
VERTEX
8
PART_TOP_2DLINE_01
10
9.8618033333
20
2.6
42
1
0
SEQEND
0
POLYLINE
8
PART_TOP_2DLINE_01
66
1
40
0.125
41
0.125
0
VERTEX
8
PART_TOP_2DLINE_01
10
7.75
20
2.5
0
VERTEX
8
PART_TOP_2DLINE_01
10
7.75
20
2.7
0
SEQEND
0
INSERT
2
SMOOTH_0$125
8
PART_TOP_2DLINE_01
10
7.75
20
2.5
0
INSERT
2
SMOOTH_0$125
8
PART_TOP_2DLINE_01
10
7.75
20
2.7
0
POLYLINE
8
PART_TOP_2DLINE_01
66
1
40
0.125
41
0.125
0
VERTEX
8
PART_TOP_2DLINE_01
10
5.25
20
2.5
0
VERTEX
8
PART_TOP_2DLINE_01
10
5.25
20
2.9
0
SEQEND
0
INSERT
2
SMOOTH_0$125
8
PART_TOP_2DLINE_01
10
5.25
20
2.5
0
INSERT
2
SMOOTH_0$125
8
PART_TOP_2DLINE_01
10
5.25
20
2.9
0
POLYLINE
8
PART_TOP_2DLINE_01
66
1
40
0.125
41
0.125
0
VERTEX
8
PART_TOP_2DLINE_01
10
2.75
20
2.5
0
VERTEX
8
PART_TOP_2DLINE_01
10
2.75
20
2.7
0
SEQEND
0
INSERT
2
SMOOTH_0$125
8
PART_TOP_2DLINE_01
10
2.75
20
2.5
0
INSERT
2
SMOOTH_0$125
8
PART_TOP_2DLINE_01
10
2.75
20
2.7
0
POLYLINE
8
PART_TOP_2DLINE_01
66
1
40
0.125
41
0.125
0
VERTEX
8
PART_TOP_2DLINE_01
10
0.25
20
2.5
0
VERTEX
8
PART_TOP_2DLINE_01
10
0.25
20
2.9
0
SEQEND
0
INSERT
2
SMOOTH_0$125
8
PART_TOP_2DLINE_01
10
0.25
20
2.5
0
INSERT
2
SMOOTH_0$125
8
PART_TOP_2DLINE_01
10
0.25
20
2.9
0
POLYLINE
8
PART_TOP_2DLINE_01
66
1
40
0.125
41
0.125
0
VERTEX
8
PART_TOP_2DLINE_01
10
-2.25
20
2.5
0
VERTEX
8
PART_TOP_2DLINE_01
10
-2.25
20
2.7
0
SEQEND
0
INSERT
2
SMOOTH_0$125
8
PART_TOP_2DLINE_01
10
-2.25
20
2.5
0
INSERT
2
SMOOTH_0$125
8
PART_TOP_2DLINE_01
10
-2.25
20
2.7
0
POLYLINE
8
PART_TOP_2DLINE_01
66
1
40
0.125
41
0.125
0
VERTEX
8
PART_TOP_2DLINE_01
10
-4.75
20
2.5
0
VERTEX
8
PART_TOP_2DLINE_01
10
-4.75
20
2.9
0
SEQEND
0
INSERT
2
SMOOTH_0$125
8
PART_TOP_2DLINE_01
10
-4.75
20
2.5
0
INSERT
2
SMOOTH_0$125
8
PART_TOP_2DLINE_01
10
-4.75
20
2.9
0
POLYLINE
8
PART_TOP_2DLINE_01
66
1
40
0.125
41
0.125
0
VERTEX
8
PART_TOP_2DLINE_01
10
-7.25
20
2.5
0
VERTEX
8
PART_TOP_2DLINE_01
10
-7.25
20
2.7
0
SEQEND
0
INSERT
2
SMOOTH_0$125
8
PART_TOP_2DLINE_01
10
-7.25
20
2.5
0
INSERT
2
SMOOTH_0$125
8
PART_TOP_2DLINE_01
10
-7.25
20
2.7
0
POLYLINE
8
PART_TOP_2DLINE_01
66
1
40
0.125
41
0.125
0
VERTEX
8
PART_TOP_2DLINE_01
10
-9.75
20
2.5
0
VERTEX
8
PART_TOP_2DLINE_01
10
-9.75
20
2.9
0
SEQEND
0
INSERT
2
SMOOTH_0$125
8
PART_TOP_2DLINE_01
10
-9.75
20
2.5
0
INSERT
2
SMOOTH_0$125
8
PART_TOP_2DLINE_01
10
-9.75
20
2.9
0
POLYLINE
8
PART_TOP_COPPER_26
66
1
40
0.125
41
0.125
70
1
0
VERTEX
8
PART_TOP_COPPER_26
10
-12.15
20
-1.6
0
VERTEX
8
PART_TOP_COPPER_26
10
-13.55
20
-1.6
0
VERTEX
8
PART_TOP_COPPER_26
10
-13.55
20
-3.4
0
VERTEX
8
PART_TOP_COPPER_26
10
13.55
20
-3.4
0
VERTEX
8
PART_TOP_COPPER_26
10
13.55
20
-1.6
0
VERTEX
8
PART_TOP_COPPER_26
10
12.15
20
-1.6
0
VERTEX
8
PART_TOP_COPPER_26
10
12.15
20
0.55
0
VERTEX
8
PART_TOP_COPPER_26
10
10.35
20
0.55
0
VERTEX
8
PART_TOP_COPPER_26
10
10.35
20
0
0
VERTEX
8
PART_TOP_COPPER_26
10
-10.3
20
0
0
VERTEX
8
PART_TOP_COPPER_26
10
-10.3
20
0.55
0
VERTEX
8
PART_TOP_COPPER_26
10
-12.15
20
0.55
0
SEQEND
0
INSERT
2
SMOOTH_0$125
8
PART_TOP_COPPER_26
10
-12.15
20
-1.6
0
INSERT
2
SMOOTH_0$125
8
PART_TOP_COPPER_26
10
-13.55
20
-1.6
0
INSERT
2
SMOOTH_0$125
8
PART_TOP_COPPER_26
10
-13.55
20
-3.4
0
INSERT
2
SMOOTH_0$125
8
PART_TOP_COPPER_26
10
13.55
20
-3.4
0
INSERT
2
SMOOTH_0$125
8
PART_TOP_COPPER_26
10
13.55
20
-1.6
0
INSERT
2
SMOOTH_0$125
8
PART_TOP_COPPER_26
10
12.15
20
-1.6
0
INSERT
2
SMOOTH_0$125
8
PART_TOP_COPPER_26
10
12.15
20
0.55
0
INSERT
2
SMOOTH_0$125
8
PART_TOP_COPPER_26
10
10.35
20
0.55
0
INSERT
2
SMOOTH_0$125
8
PART_TOP_COPPER_26
10
10.35
20
0
0
INSERT
2
SMOOTH_0$125
8
PART_TOP_COPPER_26
10
-10.3
20
0
0
INSERT
2
SMOOTH_0$125
8
PART_TOP_COPPER_26
10
-10.3
20
0.55
0
INSERT
2
SMOOTH_0$125
8
PART_TOP_COPPER_26
10
-12.15
20
0.55
0
TEXT
8
PART_TOP_TEXT_26
10
-2.8
20
-2.1
40
1.05
1
GND AREA
41
0.75
7
W0$125
0
ENDBLK
0
BLOCK
2
STK_TOP_6
8
0
10
0
20
0
3
STK_TOP_6
70
64
0
INSERT
2
DRIL_HOLE_0
8
DRIL_PLTE_THRU_01
10
0
20
0
0
INSERT
2
DRIL_HOLE_0
8
DRIL_PLTE_THRU_02
10
0
20
0
0
INSERT
2
PAD_0
8
PADS_INNER
10
0
20
0
0
INSERT
2
PAD_0
8
PADS_BOT
10
0
20
0
0
INSERT
2
PAD_8
8
PADS_TOP
10
0
20
0
50
90
0
ENDBLK
0
BLOCK
2
STK_TOP_7
8
0
10
0
20
0
3
STK_TOP_7
70
64
0
INSERT
2
DRIL_HOLE_0
8
DRIL_PLTE_THRU_01
10
0
20
0
0
INSERT
2
DRIL_HOLE_0
8
DRIL_PLTE_THRU_02
10
0
20
0
0
INSERT
2
PAD_0
8
PADS_INNER
10
0
20
0
0
INSERT
2
PAD_0
8
PADS_BOT
10
0
20
0
0
INSERT
2
PAD_9
8
PADS_TOP
10
0
20
0
50
90
0
ENDBLK
0
BLOCK
2
STK_TOP_8
8
0
10
0
20
0
3
STK_TOP_8
70
64
0
INSERT
2
DRIL_HOLE_0
8
DRIL_PLTE_THRU_01
10
0
20
0
0
INSERT
2
DRIL_HOLE_0
8
DRIL_PLTE_THRU_02
10
0
20
0
0
INSERT
2
PAD_0
8
PADS_INNER
10
0
20
0
0
INSERT
2
PAD_0
8
PADS_BOT
10
0
20
0
0
INSERT
2
PAD_10
8
PADS_TOP
10
0
20
0
50
90
0
ENDBLK
0
BLOCK
2
PART_BODY_TOP_947
8
0
10
0
20
0
3
PART_BODY_TOP_947
70
64
0
ENDBLK
0
BLOCK
2
STK_TOP_19
8
0
10
0
20
0
3
STK_TOP_19
70
64
0
INSERT
2
DRIL_HOLE_3
8
DRIL_NPLTE_THRU_01
10
0
20
0
0
INSERT
2
DRIL_HOLE_3
8
DRIL_NPLTE_THRU_02
10
0
20
0
0
INSERT
2
PAD_0
8
PADS_INNER
10
0
20
0
0
INSERT
2
PAD_0
8
PADS_BOT
10
0
20
0
0
INSERT
2
PAD_0
8
PADS_TOP
10
0
20
0
0
ENDBLK
0
BLOCK
2
PART_BODY_TOP_948
8
0
10
0
20
0
3
PART_BODY_TOP_948
70
64
0
POLYLINE
8
PART_TOP_COPPER_21
66
1
40
0.1
41
0.1
70
1
0
VERTEX
8
PART_TOP_COPPER_21
10
-1.2
20
0
42
1
0
VERTEX
8
PART_TOP_COPPER_21
10
1.2
20
0
42
1
0
SEQEND
0
POLYLINE
8
PART_TOP_COPPER_28
66
1
40
0.1
41
0.1
70
1
0
VERTEX
8
PART_TOP_COPPER_28
10
-1.2
20
0
42
1
0
VERTEX
8
PART_TOP_COPPER_28
10
1.2
20
0
42
1
0
SEQEND
0
ENDBLK
0
BLOCK
2
STK_TOP_20
8
0
10
0
20
0
3
STK_TOP_20
70
64
0
INSERT
2
DRIL_HOLE_0
8
DRIL_NPLTE_THRU_01
10
0
20
0
0
INSERT
2
DRIL_HOLE_0
8
DRIL_NPLTE_THRU_02
10
0
20
0
0
INSERT
2
PAD_0
8
PADS_INNER
10
0
20
0
0
INSERT
2
PAD_11
8
PADS_BOT
10
0
20
0
0
INSERT
2
PAD_11
8
PADS_TOP
10
0
20
0
0
ENDBLK
999
*** POWERPCB  PCB PARAMETER ***
0
BLOCK
2
PCB_PARAMS
8
0
10
0
20
0
3
PCB_PARAMS
70
64
999
 *  1.Job name           2.Backupfile name       3.CursorType
999
 *  4.TearDropFlag       5.HighlighNetsFlag      6.HatchDisplayFlag
999
 *  7.PadsFlag           8.TracksFlag            9.ViasFlag
999
 * 10.CopperFlag        11.LinesFlag            12.TextFlag
999
 * 13.TopComponentFlag  14.BottomComponentFlag  16.ObjectSnapFlags
0
TEXT
8
PCB_PARAMS
10
0
20
-3.048
40
1.778
1
A:=G101EVN01.0_V1.0-181120.pcb <> 5 0 1 1 1 1 1 1 1 1 1 1 0 502 0
999
 *  1.RefDesHeight       2.RefDesWidth           3.DefaultWidth
999
 *  4.VGX                5.VGY                   6.OVR
999
 *  7.HatchGrid          8.ObjectSnapRadius
0
TEXT
8
PCB_PARAMS
10
0
20
-6.096
40
1.778
1
B:=2.54 0.254 0.125 1 1 0.0762 0.1 2.54
999
 *  1.ScaleFactor        2.NetAttributeFlags     3.BackupInterval
999
 *  4.WorkingLevel       5.HatchMode             6.HatchDirection
999
 *  7.ConnectionColor    8.BackgroundColor       9.ForegroundColor
999
 * 10.BoardOutlineColor
0
TEXT
8
PCB_PARAMS
10
0
20
-9.144
40
1.778
1
C:=5.9712142944 10002 20 0 0 0 15 0 8 8
999
 * MitreAngle0 - MitreAngle6
0
TEXT
8
PCB_PARAMS
10
0
20
-12.192
40
1.778
1
D:=324000000 324000000 324000000 324000000 324000000 324000000 162000000
999
 * Hatch & Keepout Parameters
0
TEXT
8
PCB_PARAMS
10
0
20
-15.24
40
1.778
1
E:=0.5 0 0 2.54 0 1
999
 * Fanout Parameters
0
TEXT
8
PCB_PARAMS
10
0
20
-18.288
40
1.778
1
F:=0.635 0.635 6.35 1 2 0 1 1 0 0 1 1 1 1
999
 * Pad Entry Parameters
0
TEXT
8
PCB_PARAMS
10
0
20
-21.336
40
1.778
1
P:= 1 1 1 1
999
 * DFF Parameters
0
TEXT
8
PCB_PARAMS
10
0
20
-24.384
40
1.778
1
Q:=89.9999 3967 114300 114300 114300 5 4 114300 114300 114300 114300 1 114300 1 114300 1 114300 0
0
ENDBLK
0
BLOCK
2
DRIL_SYMBOL_0
8
0
10
0
20
0
3
DRIL_SYMBOL_0
70
64
0
ENDBLK
0
BLOCK
2
DRIL_SYMBOL_0$7
8
0
10
0
20
0
3
DRIL_SYMBOL_0$7
70
64
0
POLYLINE
8
DRIL_SYMBOL
66
1
40
0.0508
41
0.0508
0
VERTEX
8
DRIL_SYMBOL
10
0
20
-0.254
0
VERTEX
8
DRIL_SYMBOL
10
0
20
0.254
0
SEQEND
0
POLYLINE
8
DRIL_SYMBOL
66
1
40
0.0508
41
0.0508
0
VERTEX
8
DRIL_SYMBOL
10
-0.254
20
0
0
VERTEX
8
DRIL_SYMBOL
10
0.254
20
0
0
SEQEND
0
ENDBLK
0
BLOCK
2
DRIL_SYMBOL_3$3
8
0
10
0
20
0
3
DRIL_SYMBOL_3$3
70
64
0
POLYLINE
8
DRIL_SYMBOL
66
1
40
0.0508
41
0.0508
0
VERTEX
8
DRIL_SYMBOL
10
0
20
-0.254
0
VERTEX
8
DRIL_SYMBOL
10
0
20
0.254
0
SEQEND
0
POLYLINE
8
DRIL_SYMBOL
66
1
40
0.0508
41
0.0508
0
VERTEX
8
DRIL_SYMBOL
10
-0.254
20
0
0
VERTEX
8
DRIL_SYMBOL
10
0.254
20
0
0
SEQEND
0
ENDBLK
0
BLOCK
2
DRIL_SYMBOL_3
8
0
10
0
20
0
3
DRIL_SYMBOL_3
70
64
0
POLYLINE
8
DRIL_SYMBOL
66
1
40
0.0508
41
0.0508
0
VERTEX
8
DRIL_SYMBOL
10
0
20
-0.254
0
VERTEX
8
DRIL_SYMBOL
10
0
20
0.254
0
SEQEND
0
POLYLINE
8
DRIL_SYMBOL
66
1
40
0.0508
41
0.0508
0
VERTEX
8
DRIL_SYMBOL
10
-0.254
20
0
0
VERTEX
8
DRIL_SYMBOL
10
0.254
20
0
0
SEQEND
0
ENDBLK
999
*** POWERPCB  SMOOTH CIRCLE ***
0
BLOCK
2
SMOOTH_0$125
8
0
10
0
20
0
3
SMOOTH_0$125
70
64
0
POLYLINE
8
0
66
1
40
0.0625
41
0.0625
70
1
0
VERTEX
8
0
10
-0.03125
20
0
42
1
0
VERTEX
8
0
10
0.03125
20
0
42
1
0
SEQEND
0
ENDBLK
0
BLOCK
2
SMOOTH_0$11
8
0
10
0
20
0
3
SMOOTH_0$11
70
64
0
POLYLINE
8
0
66
1
40
0.055
41
0.055
70
1
0
VERTEX
8
0
10
-0.0275
20
0
42
1
0
VERTEX
8
0
10
0.0275
20
0
42
1
0
SEQEND
0
ENDBLK
0
BLOCK
2
SMOOTH_1$524
8
0
10
0
20
0
3
SMOOTH_1$524
70
64
0
POLYLINE
8
0
66
1
40
0.762
41
0.762
70
1
0
VERTEX
8
0
10
-0.381
20
0
42
1
0
VERTEX
8
0
10
0.381
20
0
42
1
0
SEQEND
0
ENDBLK
0
BLOCK
2
PAD_0
8
0
10
0
20
0
3
PAD_0
70
64
0
POLYLINE
8
0
70
1
66
1
0
VERTEX
8
0
10
0
20
0
42
1
0
VERTEX
8
0
10
0
20
0
42
1
0
SEQEND
0
ENDBLK
0
BLOCK
2
PAD_1
8
0
10
0
20
0
3
PAD_1
70
64
0
POLYLINE
8
0
70
1
66
1
40
0.4
41
0.4
0
VERTEX
8
0
10
-0.5499986667
20
-0.2
0
VERTEX
8
0
10
0.5499986667
20
-0.2
42
1
0
VERTEX
8
0
10
0.5499986667
20
0.2
0
VERTEX
8
0
10
-0.5499986667
20
0.2
42
1
0
SEQEND
0
ENDBLK
0
BLOCK
2
PAD_2
8
0
10
0
20
0
3
PAD_2
70
64
0
POLYLINE
8
0
66
1
40
2.5
41
2.5
0
VERTEX
8
0
10
-1.4999993333
20
0
0
VERTEX
8
0
10
1.4999993333
20
0
0
SEQEND
0
ENDBLK
0
BLOCK
2
PAD_3
8
0
10
0
20
0
3
PAD_3
70
64
0
POLYLINE
8
0
66
1
40
0.6
41
0.6
0
VERTEX
8
0
10
-1
20
0
0
VERTEX
8
0
10
1
20
0
0
SEQEND
0
ENDBLK
0
BLOCK
2
PAD_4
8
0
10
0
20
0
3
PAD_4
70
64
0
POLYLINE
8
0
66
1
40
0.8
41
0.8
0
VERTEX
8
0
10
-1
20
0
0
VERTEX
8
0
10
1
20
0
0
SEQEND
0
ENDBLK
0
BLOCK
2
PAD_5
8
0
10
0
20
0
3
PAD_5
70
64
0
POLYLINE
8
0
66
1
40
1.8
41
1.8
0
VERTEX
8
0
10
-1.15
20
0
0
VERTEX
8
0
10
1.15
20
0
0
SEQEND
0
ENDBLK
0
BLOCK
2
PAD_6
8
0
10
0
20
0
3
PAD_6
70
64
0
POLYLINE
8
0
70
1
66
1
40
0.508
41
0.508
0
VERTEX
8
0
10
0
20
-0.254
42
1
0
VERTEX
8
0
10
0
20
0.254
42
1
0
SEQEND
0
ENDBLK
0
BLOCK
2
PAD_7
8
0
10
0
20
0
3
PAD_7
70
64
0
POLYLINE
8
0
70
1
66
1
40
1.587
41
1.587
0
VERTEX
8
0
10
0
20
-3.2065
42
1
0
VERTEX
8
0
10
0
20
3.2065
42
1
0
SEQEND
0
ENDBLK
0
BLOCK
2
PAD_8
8
0
10
0
20
0
3
PAD_8
70
64
0
POLYLINE
8
0
66
1
40
0.25
41
0.25
0
VERTEX
8
0
10
-0.45
20
0
0
VERTEX
8
0
10
0.45
20
0
0
SEQEND
0
ENDBLK
0
BLOCK
2
PAD_9
8
0
10
0
20
0
3
PAD_9
70
64
0
POLYLINE
8
0
66
1
40
0.55
41
0.55
0
VERTEX
8
0
10
-0.45
20
0
0
VERTEX
8
0
10
0.45
20
0
0
SEQEND
0
ENDBLK
0
BLOCK
2
PAD_10
8
0
10
0
20
0
3
PAD_10
70
64
0
POLYLINE
8
0
66
1
40
0.89
41
0.89
0
VERTEX
8
0
10
-0.75
20
0
0
VERTEX
8
0
10
0.75
20
0
0
SEQEND
0
ENDBLK
0
BLOCK
2
PAD_11
8
0
10
0
20
0
3
PAD_11
70
64
0
POLYLINE
8
0
70
1
66
1
40
0.5
41
0.5
0
VERTEX
8
0
10
0
20
-0.25
42
1
0
VERTEX
8
0
10
0
20
0.25
42
1
0
SEQEND
0
ENDBLK
999
*** POWERPCB  DRILL HOLE ***
0
BLOCK
2
DRIL_HOLE_0
8
0
10
0
20
0
3
DRIL_HOLE_0
70
64
0
POLYLINE
8
0
66
1
70
1
0
VERTEX
8
0
10
0
20
0
42
1
0
VERTEX
8
0
10
0
20
0
42
1
0
SEQEND
0
INSERT
2
DRIL_SYMBOL_0
8
0
10
0
20
0
0
ENDBLK
0
BLOCK
2
DRIL_HOLE_0$7
8
0
10
0
20
0
3
DRIL_HOLE_0$7
70
64
0
POLYLINE
8
0
66
1
40
0.35
41
0.35
70
1
0
VERTEX
8
0
10
-0.175
20
0
42
1
0
VERTEX
8
0
10
0.175
20
0
42
1
0
SEQEND
0
INSERT
2
DRIL_SYMBOL_0$7
8
0
10
0
20
0
0
ENDBLK
0
BLOCK
2
DRIL_HOLE_3$3
8
0
10
0
20
0
3
DRIL_HOLE_3$3
70
64
0
POLYLINE
8
0
66
1
40
1.65
41
1.65
70
1
0
VERTEX
8
0
10
-0.825
20
0
42
1
0
VERTEX
8
0
10
0.825
20
0
42
1
0
SEQEND
0
INSERT
2
DRIL_SYMBOL_3$3
8
0
10
0
20
0
0
ENDBLK
0
BLOCK
2
DRIL_HOLE_3
8
0
10
0
20
0
3
DRIL_HOLE_3
70
64
0
POLYLINE
8
0
66
1
40
1.5
41
1.5
70
1
0
VERTEX
8
0
10
-0.75
20
0
42
1
0
VERTEX
8
0
10
0.75
20
0
42
1
0
SEQEND
0
INSERT
2
DRIL_SYMBOL_3
8
0
10
0
20
0
0
ENDBLK
0
ENDSEC
0
SECTION
2
ENTITIES
999
*** POWERPCB  DBLAYER ***
0
INSERT
2
DBLAYERS
8
0
10
0
20
0
999
*** POWERPCB  BOARD ***
999
*** POWERPCB  2DLINE ***
0
INSERT
2
DRAWING_935
8
0
10
0
20
43
0
INSERT
2
DRAWING_937
8
0
10
11.95
20
-12.85
0
INSERT
2
DRAWING_938
8
0
10
38.95
20
-12.85
0
INSERT
2
DRAWING_939
8
0
10
38.95
20
-15.85
0
INSERT
2
DRAWING_940
8
0
10
39.95
20
-18.85
0
INSERT
2
DRAWING_941
8
0
10
48.95
20
-18.85
0
INSERT
2
DRAWING_942
8
0
10
38.95
20
-17.35
0
INSERT
2
D_1dfeghi_943
8
0
10
0
20
43
0
INSERT
2
D_2daefgh_944
8
0
10
65
20
0
0
INSERT
2
DRAWING_945
8
0
10
0
20
86
0
INSERT
2
DRAWING_946
8
0
10
0
20
0
0
INSERT
2
DRAWING_949
8
0
10
135
20
0
0
INSERT
2
D_1dfeghi_950
8
0
10
0
20
43
0
INSERT
2
D_1dfeghi_951
8
0
10
5
20
43
0
INSERT
2
D_1dfeghi_952
8
0
10
36
20
43
0
INSERT
2
D_2dfeghi_953
8
0
10
0
20
0
0
INSERT
2
D_2daefgh_954
8
0
10
0
20
5
0
INSERT
2
D_2dfeghi_955
8
0
10
0
20
38
0
INSERT
2
D_2dfeghi_956
8
0
10
65
20
0
0
INSERT
2
D_2dfeghi_957
8
0
10
65
20
38
0
INSERT
2
D_1dfeghi_958
8
0
10
65
20
0
0
INSERT
2
D_1dfeghi_959
8
0
10
125
20
0
0
INSERT
2
D_1dfeghi_960
8
0
10
70
20
0
0
INSERT
2
DRAWING_961
8
0
10
65
20
86
0
INSERT
2
DRAWING_962
8
0
10
65
20
43
999
*** POWERPCB  FREE TEXT ***
0
TEXT
8
TEXT_21
10
17.2
20
-20.4
40
1.4
1
SOLDER MASK TOP
41
0.75
7
W0$2
0
TEXT
8
TEXT_01
10
18.455
20
-20.385
40
1.4
1
COMPONENT SIDE
41
0.75
7
W0$2
0
TEXT
8
TEXT_26
10
42
20
16
40
1.4
1
MODEL : G101EVN01.0 V1.0
41
0.75
7
W0$2
0
TEXT
8
TEXT_26
10
42
20
18
40
1.4
1
LEAD FREE
41
0.75
7
W0$2
0
TEXT
8
TEXT_26
10
42
20
20
40
1.4
1
RoHS
41
0.75
7
W0$2
0
TEXT
8
TEXT_26
10
42
20
14
40
1.4
1
2018. 11. 20
41
0.75
7
W0$2
999
*** POWERPCB  COMPONENT ***
0
INSERT
2
PART_TOP_0
8
0
10
4.9
20
23.2
50
270
0
INSERT
2
PART_TOP_1
8
0
10
33
20
6.2
0
INSERT
2
PART_TOP_2
8
0
10
5
20
5
0
INSERT
2
PART_TOP_3
8
0
10
60
20
5
0
INSERT
2
PART_TOP_4
8
0
10
5
20
38
0
INSERT
2
PART_TOP_5
8
0
10
60
20
38
0
INSERT
2
PART_TOP_6
8
0
10
34
20
35
50
180
0
INSERT
2
PART_TOP_7
8
0
10
-2.5
20
81
50
270
0
INSERT
2
PART_TOP_8
8
0
10
-2.5
20
71
50
270
0
INSERT
2
PART_TOP_9
8
0
10
-2.5
20
5
50
90
0
INSERT
2
PART_TOP_10
8
0
10
-2.5
20
15
50
90
0
INSERT
2
PART_TOP_11
8
0
10
132.5
20
81
50
270
0
INSERT
2
PART_TOP_12
8
0
10
132.5
20
71
50
270
0
INSERT
2
PART_TOP_13
8
0
10
132.5
20
5
50
90
0
INSERT
2
PART_TOP_14
8
0
10
132.5
20
15
50
90
999
*** POWERPCB  PCB PARAMETER ***
0
INSERT
2
PCB_PARAMS
8
0
10
0
20
0
0
ENDSEC
0
EOF
